» » »

12 Stones, Adrenaline Bass tabs (ver.2)

Artists:  A B C D E F G H I J K L M N O P Q R S T U V W X Y Z # 

Adrenaline Bass tabs (ver.2)

12 Stones Tabs
 Rating:
4/5 (4 votes)
Adrenaline lessons Tabs too difficult? Try these video lessons and learn fast
                -------------------------------------------------------------------------------
			     Adrenaline - 12 Stones
-------------------------------------------------------------------------------


Tuning:CGCF


  Intro/Pre-Chorus  (it's 45 minutes of love...)
G|---------------------------------------------------------------------------|
D|---------------------------------------------------------------------------|
A|---------------------------------------10----------------------------------|
E|-0-0-10-12-13-12-0-0-10-12-13-12-10-12----12-------------------------------|


  Verse
G|------------------------------------------------------------------------------|
D|------------------------------------------------------------------------------|
A|------------------------------------------------------------------------------|
E|-0-0-0--0-0-3p0 0h3h5p0-0-0-0----0-0-3p0-6-5-3---0-0-0--0-0-3p0 0h3h5p0-0-0-0-|


  Chorus    (so feel it....)
G|---------------------------------------------------------------------------|
D|---------------------------------------------------------------------------|
A|---------------------------------------------------------------------------|
E|-0-0-0-0-8-8-8-8-3-3-3-3-5-5-5-5-5-----------------------------------------|

  Bridge
G|---------------------------------------------------------------------------|
D|---------------------------------------------------------------------------|
A|---------------------------------------------------------------------------|
E|-0-0-3h5-0-0-5h7-0-0-7h9/10-10-10-10---------------------------------------|

G|---------------------------------------------------------------------------|
D|---------------------------------------------------------------------------|
A|---------------------------------------------------------------------------|
E|---------------------------------------------------------------------------|

Pretty basic. I didn't do the rythms perfect, but those are the notes. Not hard to 
out after that.
And I promise you this is 100000% correct. Seriously.


| /  slide up
| \  slide down
| h  hammer-on
| p  pull-off
| ~  vibrato
| +  harmonic
| x  Mute note
===============================================================================
            
Submit corrections

comments powered by Disqus
↑ Back to top | 12 Stones Bass for Adrenaline. Lyrics for acoustic guitar and electric guitar. Tablatures and chords are parodies/interpretations of the original songs. You may use it for private study, scholarship, research or language learning purposes only