» » »

12 Stones, Adrenaline Bass tabs (ver.1)

Artists:  A B C D E F G H I J K L M N O P Q R S T U V W X Y Z # 

Adrenaline Bass tabs (ver.1)

12 Stones Tabs
 Rating:
4.2/5 (5 votes)
Adrenaline lessons Tabs too difficult? Try these video lessons and learn fast
1
                Tuning - CGCF

Listen to the song for timing, it's not really that hard. Just be fast with them fingers. 

h = hammer on
p = pull-off
* = pop or slap, depends on preference (only one instance in this song)

(No bass for 4 measures -- or 11 seconds)
Intro
F|------------------------------------|
C|------------------------------------|
G|-----------5p3---------5p3----------|
C|---0-0-3h5-----0-0-3h5------3h5-5---|x4

Verse
F|--------------------------------------------------------------|
C|--------------------------------------------------------------|
G|--------------------------------------------------------------|
C|---0-00--000-00-355---0-00--000-00-355---0-00--000-00-355--0-0|

(Rest for last measure of the verse, guitar does pickslide)

F|------------------------------------|
C|------------------------------------|
G|-----------5p3---------5p3----------|
C|---0-0-3h5-----0-0-3h5------3h5-5---|x4


Chorus
F|-----------------------------------------------------------------|
C|-----------------------------------------------------------------|
G|-----1-1-1-1-1----------------------1-1-1-1-1--------------------|
C|-0-0-----------3-3--5-5-5-5-5---0-0-----------3-3--5--5--5-5-5-5-|

F|----------------------------------------------------|
C|----------------------------------------------------|
G|-----1-1-1-1-1----------------------1-1-1-1-1-------|
C|-0-0-----------3-3--5-5-5-5-5---0-0-----------3-3--5|

(Back to intro)
F|------------------------------------|
C|------------------------------------|
G|-----------5p3---------5p3----------|
C|---0-0-3h5-----0-0-3h5------3h5-5---|x2

Verse
F|--------------------------------------------------------------|
C|--------------------------------------------------------------|
G|--------------------------------------------------------------|
C|---0-00--000-00-355---0-00--000-00-355---0-00--000-00-355--0-0|

(Rest for last measure of the verse, guitar does pickslide again)

F|------------------------------------|
C|------------------------------------|
G|-----------5p3---------5p3----------|
C|---0-0-3h5-----0-0-3h5------3h5-5---|x4


Chorus
F|-----------------------------------------------------------------|
C|-----------------------------------------------------------------|
G|-----1-1-1-1-1----------------------1-1-1-1-1--------------------|
C|-0-0-----------3-3--5-5-5-5-5---0-0-----------3-3--5--5--5-5-5-5-|

F|----------------------------------------------------|
C|----------------------------------------------------|
G|-----1-1-1-1-1----------------------1-1-1-1-1-------|
C|-0-0-----------3-3--5-5-5-5-5---0-0-----------3-3--5|

Rest before solo (2:00-2:12)

Solo
F|------------------------------------------------------------------|
C|------------------------------------------------------------------|
G|-----------5-5---------5-5-3-3-3-----------5-5---------5-5-3-3-3--|
C|---0-0-5h7-----0-0-5h7-------------0-0-5h7-----0-0-5h7------------|

F|-----------------------------------------------------------|
C|-----------------------------------------------------------|
G|-----------5-5---------5-5-3-3-3---------------------------|
C|---0-0-5h7-----0-0-5h7-------------0-0-5h7-0-5h7-0-5h7-15\-|


F|--------------------------------------------------------------|
C|--------------------------------------------------------------|
G|--------------------------------------------------------------|
C|---0-00--000-00-355---0-00--000-00-355---0-00--000-00-355--0-0|

(Optional, when guitar hits the harmonic at 2:34)
F|-*0-|
C|----|
G|----|
C|----|

Chorus
F|-----------------------------------------------------------------|
C|-----------------------------------------------------------------|
G|-----1-1-1-1-1----------------------1-1-1-1-1--------------------|
C|-0-0-----------3-3--5-5-5-5-5---0-0-----------3-3--5--5--5-5-5-5-|

F|-----------------------------------------------------------|
C|-----------------------------------------------------------|
G|-----1-1-1-1-1----------------------1-1-1-1-1--------------|
C|-0-0-----------3-3--5-5-5-5-5---0-0-----------3-3--5-5-5-5-|


F|------------------------------------|
C|------------------------------------|
G|-----------5p3---------5p3----------|
C|---0-0-3h5-----0-0-3h5------3h5-5---|x7

F|--------------------------------|
C|--------------------------------|
G|--------------------------------|
C|---0-0--0-0--0-0-0-0-0-0-0-0----|

Well, that's it, pretty good song.
Rate/Comment with suggestions, whatever
Have fun playing it!
            
Submit corrections

comments powered by Disqus
↑ Back to top | 12 Stones Bass for Adrenaline. Lyrics for acoustic guitar and electric guitar. 1 Tablatures and chords are parodies/interpretations of the original songs. You may use it for private study, scholarship, research or language learning purposes only