» » »

Dreadlock Holiday Tabs (ver.3)

Artists:  A B C D E F G H I J K L M N O P Q R S T U V W X Y Z # 

Dreadlock Holiday Tabs (ver.3)

10cc
Rating:
0/5 (0 votes)

Hard to play? Try these video lessons and learn fast.
                “Dreadlock Holiday” by 10cc

Note: The guitar parts are interesting in this song because there is
a foundation that revolves around the opening chords, and then some
obvious improvisation that follows. To play this song, all you really
need to know are the chords and you can work your way around that. I
did however tab the first few bars so that you can try to get the pattern.

  Intro
e[-10~---8---6~]
B[-11~--10---8~]
G[-12~--10---8~] 2x
D[-12~--10---8~]
A[(10)--(8)-(6)]
E[-------------]

  0:09, Verse Pattern
e[-10~--------x------10-----10~-10~----8--8-x--8----8-8---10-10-10-]
B[-----11-11---11------11-------------10-10-x-10---10--------------]
G[-----12-12---12------12------------------------------------------]
D[-----------------------------------------------------------------]
A[-----------------------------------------------------------------]
E[-----------------------------------------------------------------]
														“I was walkin’ down the street...”
e[--------10------10-----10~-10~----8--8-x--8----8----10-10-10-]
B[-11-11----11------11-------------10-10-x-10---10-------------]
G[-12-12----12------12-----------------------------------------]
D[-------------------------------------------------------------]
A[-------------------------------------------------------------]
E[-------------------------------------------------------------]

  Chorus, 0:55
e[-10--8-6-5-3-5-6--8-]
B[-11-10-8-6-4-6-8-10-]
G[-12-10-8-7-5-7-8-10-]
D[-12-10-8-7-5-7-8-10-]
A[-10--8-6-5-3-5-6--8-]
E[--------------------]

  Chorus Pattern
e[----10-------8-----6-----5-----3-----5-----6-------8-]
B[-11-11---10-10---8-8---6-6---4-4---6-6---8-8---10-10-]
G[-12-12---10-10---8-8---7-7---5-5---7-7---8-8---10-10-]
D[-12------10------8-----7-----5-----7-----8-----10----]
A[-(3x)-----------(3x)--------(3x)--------(3x)---------]
E[-----------------------------------------------------]
            
Hard to play? Try these video lessons and learn fast. | Correct




comments powered by Disqus
↑ Back to top | Tablatures and chords are parodies/interpretations of the original songs. You may use it for private study, scholarship, research or language learning purposes only