» » »

10cc, Dreadlock Holiday Chords (ver.3)

Artists:  A B C D E F G H I J K L M N O P Q R S T U V W X Y Z # 

Dreadlock Holiday Chords (ver.3)

10cc Tabs
 Rating:
3.4/5 (15 votes)
Dreadlock Holiday lessons Tabs too difficult? Try these video lessons and learn fast
                WOULD LIKE COMMENTS ON THIS.

Intro
Gm       F   Cm  x 6


Intro riff:

|---8s-10---10-10-10-10-10-10--6-6-6-6--8--8----------------|
|--10s-11---11-11-11-11-11-11--8-8-8-8--10-10---------------|
|--10s-12---12-12-12-12-12-12--8-8-8-8--10-10---------------|   x 6
|-----------------------------------------------------------|
|-----------------------------------------------------------|
|-----------------------------------------------------------|


Riff(Same as intro):
|---8s-10---10-10-10-10-10-10--6-6-6-6--8--8----------------|
|--10s-11---11-11-11-11-11-11--8-8-8-8--10-10---------------|
|--10s-12---12-12-12-12-12-12--8-8-8-8--10-10---------------|
|-----------------------------------------------------------|
|-----------------------------------------------------------|
|-----------------------------------------------------------|

          Gm                     F  Cm    Gm
I was walking down the street
      Gm                        F Cm   Gm
concentrating on truck and right
          Gm                        F  Cm  Gm
I heard a dark voice beside of me
         Gm                          F  Cm
I looked around in a state of fright

                  Gm                      Cm
I saw four faces, one mad; a brother from the gutter
           Gm                         Cm
They looked me up and down  a bit and turned to each other


Gm          F Cm x2

|---8s-10---10-10-10-10-10-10--6-6-6-6--8--8------------------------|
|--10s-11---11-11-11-11-11-11--8-8-8-8--10-10-----------------------|
|--10s-12---12-12-12-12-12-12--8-8-8-8--10-10----------------   x 2-|
|-------------------------------------------------------------------|
|-------------------------------------------------------------------|
|-------------------------------------------------------------------|

Chorus(down-up rhytm):    x 2

...cricket,              oh no,            I love it
|-----10-10-10-10-10-10--8--8--6-6-6-6-6---5-5-----3-3-3-3-3-3--5--6-6-6-6-6-6--8--8--|
|-----11-11-11-11-11-11--10-10-8-8-8-8-8---6-6-----4-4-4-4-4-4--6--8-8-8-8-8-8--10-10-|
|-----12-12-12-12-12-12--10-10-8-8-8-8-8---7-7-----5-5-5-5-5-5--7--8-8-8-8-8-8--10-10-|
|-------------------------------------------------------------------------------------|
|-------------------------------------------------------------------------------------|
|-------------------------------------------------------------------------------------|
                                   Gm           Eb      Cm       Eb
I say, I don't like cricket, oh no, I love it
  Gm           Eb      Cm       Eb
I don't like cricket, oh no, I love it

                   Bb
Don't you walk through my words. You got to show some respect
                   Bb
   C
Don't you walk through my words. Cause you ain't heard me out yet

Gm          F Cm x 2


Well, he looked down at my silver chain.
He said:' I'll give you one dollar.
I said: You've got to be jokin' , man,
It was a present from me mother'


He said:' I like it
          I want it
          I'll take it off your hands,

And you'll be sorry you crossed me
you better understand
That you're alone
a long way from home)


I say, I don't like Reggae, oh no, I love it
I don't like Reggae, oh no , I love it
Don't you cramp me style
Don't you queer on me pitch
Don't you walk thru my words
'Cause you ain't heard me out yet


MODULATION  1/2 tone up - from Gm to G#m | F to F# | Cm to C#m

|--9s11-11-11-11-11-11-11--7-7-|...
|-11s12-12-12-12-12-12-12--9-9-|...   YOU KNOW THE REST
|-11s13-13-13-13-13-13-13--9-9-|...
|------------------------------|
|------------------------------|
|------------------------------|
        Abm                          F#  C#m
I hurried back to the swimming pool
Gm                   F#  C#m
Sinkin' pina coladas
I heard a dark voice beside me say
Would you like something harder
She said I've got it you want it
My harvest is the best
And if you try it you'll like it
And wallow in a Dreadlock Holiday

And I say
Don't like Jamaica oh no
I love her
Don't like Jamaica oh no
I love her oh yea
Don't you walk thru her words
You got to show some respect
Don't you walk thru her words
'Cause you ain't heard her out yet

I don't like cricket
I love it (Dreadlock Holiday)
I don't like reggae
I love it (Dreadlock Holiday)
Don't like Jamaica
I love her (Dreadlock Holiday)
            
Submit corrections

comments powered by Disqus
↑ Back to top | 10cc Chords for Dreadlock Holiday. Lyrics for acoustic guitar and electric guitar. Tablatures and chords are parodies/interpretations of the original songs. You may use it for private study, scholarship, research or language learning purposes only