» » »

10cc, Dreadlock Holiday Bass tabs (ver.1)

Artists:  A B C D E F G H I J K L M N O P Q R S T U V W X Y Z # 

Dreadlock Holiday Bass tabs (ver.1)

10cc Tabs
Rating:
5/5 (4 votes)
Dreadlock Holiday lessons Tabs too difficult? Try these video lessons and learn fast
                

I saw that there were no bass tabs for it, so I decided to make my own,
for all those too lazy to watch the video and learn off that or those who
needed a paper copy of it. Enjoy :)

Intro 4 bars Drums only...

G------------------------|
D------------------------|      	Intro Line
A-----------1-3-3--3-3---|	(4 times)
E--1-3-------------------|

G------------------------|
D------------------------|	Verse Line
A-----------1-3----------|	(4 times)
E--1-3-------------------|

G--------------------------------------------------------------------------|
D----5-5-0-5-----------------5-5-0-5-------------------       Verse Part 2-|
A--5-----------5--3-3---3--5-----------5--3-3---3--5-----------------------|
E--------------------3-----------------------3-----------------------------|

G-----------------------------------5----|
D--5--------------5---------------5------|    Pre-Chorus
A------5--3----5------5--3----5-6--------|
E----------------------------------------|

G----------------------------------------------------------|
D--5-5-0-5--3--1-1---1-1--0-----------0---1-1---1-1---3----|	Chorus
A------------------1--------3-3---3-----------1------------|
E------------------------------3---------------------------|

G-------------------------------------------------------|
D--5-5-0-5----------------------------------------------|	Chorus Continued
A-----------8--6-6---6-6--5--3-3---3--5--6-6---6-6--8---|
E------------------6-------------3-----------6----------|

G-------------------------------------------|
D--8-8-8------------8-8-8-------------------|	Chorus Continued
A------------------------------------5--3---|
E----------6-6-6------------6-6-6-----------|

G------------------|
D------------------|	Verse Line
A-----------1-3----|	(6 times)
E--1-3-------------|

G----------------------------------------------------------------|
D--5-5-----5--3--1-1---1-1--3--5-5-----5--3--1-1---1-1--3--------|	Verse Part 2
A------5^8-----------1-------------5^8-----------1---------------|
E----------------------------------------------------------------|

G-----------------------------------5----|
D--5--------------5---------------5------|    Pre-Chorus
A------5--3----5------5--3----5-6--------|
E----------------------------------------|

G----------------------------------------------------------|
D--5-5-0-5--3--1-1---1-1--0-----------0---1-1---1-1---3----|	Chorus
A------------------1--------3-3---3-----------1------------|
E------------------------------3---------------------------|

G-------------------------------------------------------|
D--5-5-0-5----------------------------------------------|	Chorus Continued
A-----------8--6-6---6-6--5--3-3---3--5--6-6---6-6--8---|
E------------------6-------------3-----------6----------|

G-------------------------------------------|
D--8-8-8------------8-8-8----------------5--|	Chorus Continued
A------------------------------------5------|
E----------6-6-6------------6-6-6-----------|

G-------------------------------------5---|
D---------------------------------3-5-----|	Verse Line
A---------1-3-------------1-3---5---------|
E--3---------------1-3--------------------|

G-----------------|
D-----------------|	   Verse Line (Key Change)
A-----------2-4---|	   (4 times)
E--(2)-4----------|

G---------------------------------------------------------|
D------6-6---6--4--2-2---2-2--4--6-6---6--4--2-2---2--4---|	Verse Part 2
A--6-------6-----------2-------------6-----------2--------|
E---------------------------------------------------------|

G-----------------------------------6----|
D--6--------------6---------------6------|    Pre-Chorus
A------6--4----6------6--4----6-7--------|
E----------------------------------------|

G-----------------------------------------------------|
D--6-6---6--4--2-2---2--1-----------------------------|	Chorus
A------6-----------2-------4-4---4--6--7-7---7-7--9---|
E------------------------------4-----------7----------|

G-----------------------------------------------------|
D--6-6---6--------------------------------------------|	Chorus Continued
A------6----9--7-7---7--6--4-4---4--6--7-7---7-7--9---|
E------------------7-----------4-----------7----------|

G----------------------------------------|
D--9-9-9-----------9-9-9-----------------|	Chorus Continued
A---------------------------------6--4---|
E----------7-7-7-----------7-7-7---------|

G----------------------|
D----------------------|	    Outro Line
A---------2-4-4--4-4---|		Until Fadeout
E--2-4-----------------|

G-------------------------|
D-------------------------|  Outro Line
A------------2-4-4--4-4---|       Variation...
E--0-2-3-4----------------|
            

comments powered by Disqus
↑ Back to top | 10cc Bass for Dreadlock Holiday. Lyrics for acoustic guitar and electric guitar. Tablatures and chords are parodies/interpretations of the original songs. You may use it for private study, scholarship, research or language learning purposes only