» » »

Dreadlock Holiday Tabs (ver.1)

Artists:  A B C D E F G H I J K L M N O P Q R S T U V W X Y Z # 

Dreadlock Holiday Tabs (ver.1)

10cc
Rating:
3/5 (3 votes)

Hard to play? Try these video lessons and learn fast.
                Been watching the tabs that have been put out and saw they were missing some parts, so 
i would insert a tab with em..
____________________________________________________________________________


VERSE: is played with a lot of up and down strokes (this just shows the 2 chords used)
e|-------10-----------------8---------------------------------------------------|
B|-------11-----------------8---------------------------------------------------|
G|-------10-----------------8---------------------------------------------------|
D|-------12-----------------8---------------------------------------------------|
A|-------10----------------10---------------------------------------------------|
E|--------x-----------------8---------------------------------------------------|

Pre-Chorus: is played just like this, all down strokes
e|-------10-----------------10----------------8-------------------------------------|
B|-------11-----------------10----------------8-------------------------------------|
G|-------10-----------------10----------------8-------------------------------------|
D|-------12-----------------10----------------8-------------------------------------|
A|-------10-----------------12---------------10-------------------------------------|
E|--------x-----------------10----------------8-------------------------------------|

Chorus: is played where you go fast down to the C (3rd barré) and then stops, and back up again.
e|--10----8---6---5---3---5---6---8--------------------------------------------|
B|--11---10---8---6---4---6---8--10--------------------------------------------|
G|--10---10---8---7---5---7---8--10--------------------------------------------|
D|--12---10---8---7---5---7---8--10--------------------------------------------|
A|--10----8---6---5---3---5---6---8--------------------------------------------|
E|---x----x---x---x---x---x---x---x--------------------------------------------|


then at one point the song will be heightent a half note so it will be

verse:
e|-------11-----------------9---------------------------------------------------|
B|-------12-----------------9---------------------------------------------------|
G|-------11-----------------9---------------------------------------------------|
D|-------13-----------------9---------------------------------------------------|
A|-------11----------------11---------------------------------------------------|
E|--------x-----------------9---------------------------------------------------|


Pre-Chorus:
e|-------11-----------------11----------------9---------------------------------------|
B|-------12-----------------11----------------9---------------------------------------|
G|-------11-----------------11----------------9---------------------------------------|
D|-------13-----------------11----------------9---------------------------------------|
A|-------11-----------------13---------------11---------------------------------------|
E|--------x-----------------11----------------9---------------------------------------|

Chorus:
e|--11----9---7---6---4---6---7---9--------------------------------------------|
B|--12---11---9---7---5---7---9--11--------------------------------------------|
G|--11---11---9---8---6---8---9--11--------------------------------------------|
D|--13---11---9---8---6---8---9--11--------------------------------------------|
A|--11----9---7---6---4---6---7---9--------------------------------------------|
E|---x----x---x---x---x---x---x---x--------------------------------------------|
            
Hard to play? Try these video lessons and learn fast. | Correct




comments powered by Disqus
↑ Back to top | Tablatures and chords are parodies/interpretations of the original songs. You may use it for private study, scholarship, research or language learning purposes only