» » »

Zombie Ghost Train - Devil Child Tabs

Artists:  A B C D E F G H I J K L M N O P Q R S T U V W X Y Z # 

Devil Child Tabs

(ver. 1) Click to play this song!
Zombie Ghost Train
 Rating:
4.2/5 (5 votes)


 Devil Child lessons Tabs too difficult? Try these video lessons and learn fast
 
                -DEVIL CHILD-
Zombie Ghost Train
-MONSTER FORMAL WEAR-

Words and music by Stu Arkoff, Captain Reckless and Azza T.


Standard Tuning: E A D G B e

/-slide up
\-slide down
~-let ring
~~-tremolo bar
h-hammer on
p-pull off
#(#)-bend up
#(#)#-bend and resolve
(#)#-pre bend
#(#)(#)(#)-bend, resolve and pick on the way down

Intro
E------------------------------------------|
B------------------------------------------|
G------------------------------------(x4)--|
D------------2-----------------------------|
A----------------------0-1-1-1-0-----------|
E--0---0--3------0--3-------------3--------|

Verse #1
e------------------------------------------0---0---0---0~~--|
B------------------------------------------0---0---0---0~~--|
G------------------------------------(x3)--0---0---0---0~~--|
D------------2-----------------------------2---2-------2~~--|
A----------------------0-1-1-1-0-----------2---2-------2~~--|
E--0---0--3------0--3-------------3--------------------0~~--|

Chorus
e--0~~--------0~~--------0~~---------------------------|
B--0~~--------0~~--------0~~---------------------------|
G--0~~--------0~~--------0~~--------5--5--5--5--5------|
D--2~~--------2~~--------2~~--------5--5--5--5--5--4~--|
A--2~~--------2~~--------2~~--------3--3--3--3--3--4~--|
E--0~~--------0~~--------0~~-----------------------2~--|

E------------------------------------------|
B------------------------------------------|
G------------------------------------(x2)--|
D------------2-----------------------------|
A----------------------0-1-1-1-0-----------|
E--0---0--3------0--3-------------3--------|


Verse #2
e------------------------------------------0---0---0~~--|
B------------------------------------------0---0---0~~--|
G------------------------------------(x3)--0---0---0~~--|
D------------2-----------------------------2-------2~~--|
A----------------------0-1-1-1-0-----------2-------2~~--|
E--0---0--3------0--3-------------3----------------0~~--|

Chorus

Leadbreak
e--3~~--------2~~--------0~~------------3~~--------2~~--------0~~--|
B--4~~--------3~~--------2~~------------4~~--------3~~--------2~~--|
G--5~~--------4~~--------3~~------------5~~--------4~~--------3~~--|
D------------------------------------------------------------------|
A------------------------------------------------------------------|
E------------------------------------------------------------------|

e--------------------------------------------------------|
B--------------------------------------------------------|
G--------------------------------------------------------|
D--------------------------------------------------------|
A--------------------------------------------------------|
E--0--0-0--0-0--0-0--2/3-3~----0--0-0--0-0--0-0--2/3-3~--|
Note: Stu Arkoff does uses a technique using the tremolo bar here, 
with his left (fretting) hand pushing down on the tremolo bar 
(lowering the pitch) across the E notes. if you don't have a 
tremolo bar, just play it as it is written, or improvise.

e------------------------------------------------------------------|
B--14~----14-14--12--------12--14--14(15)--14(15)------------------|
G--14~----14-14--12--------12--14--14(15)--14(15)--14p12----12-14--|
D--------------------14----------------------------------14--------|
A------------------------------------------------------------------|
E------------------------------------------------------------------|

e----------------------------------------|
B--14(15)-(15)---------------------------|
G--14(15)-------14--12--14--12------12~--|
D-------------------------------14-------|
A----------------------------------------|
E----------------------------------------|

e-------------------------7~----2~----7~--|
B-------------------------8~----3~----8~--|
G--12-12-12-12-12-12-12~--9~----4~----9~--|
D-----------------------------------------|
A-----------------------------------------|
E-----------------------------------------|

e----------------------------------------------|
B----10--7--10------------10--7--10------------|
G---------------5h7--9~--------------5h7--10~--|
D----------------------------------------------|
A--0-------------------------------------------|
E----------------------------------------------|

e-----------------------------------------------|
B--10--7--10-----------8p7p5-8p7p5-8p7p5-8p7p5--|
G-------------9--7~-----------------------------|
D-----------------------------------------------|
A-----------------------------------------------|
E-----------------------------------------------|

e--------------------------------------------|
B--10--7--10-------10----10--7--10-------10--|
G-------------5h7--9----------------5h7--9---|
D--------------------------------------------|
A--------------------------------------------|
E--------------------------------------------|

e--------------------0~~--------2~~--|
B--8-8-8-8-7-7-7-----0~~--------0~~--|
G--9-9-9-9-8-8-8-----0~~--------0~~--|
D--------------------2~~--------2~~--|
A--------------------2~~--------2~~--|
E--------------------0~~--------2~~--|

Verse #3
e------------------------------------------0---0---0~~--|
B------------------------------------------0---0---0~~--|
G------------------------------------(x3)--0---0---0~~--|
D------------2-----------------------------2-------2~~--|
A----------------------0-1-1-1-0-----------2-------2~~--|
E--0---0--3------0--3-------------3----------------0~~--|

Chorus

Outro
E---------------------------------------------|
B---------------------------------------------|
G---------------------------------------(x3)--|
D------------2--------------------------------|
A----------------------0-1-1-1-0--------------|
E--0---0--3------0--3-------------3--0--------|

e-----------------------------------|
B-----------------------------------|
G-----------------------------------|
D------------2----------------------|
A---------------------0-1-1-1-0-----|
E--0---0--3-----0--3-------------3--|

e--------0~----0-0-0-0-0-0-2-2-2-2-2-2\--|
B--------0~----0-0-0-0-0-0-0-0-0-0-0-0\--|
G--------0~----0-0-0-0-0-0-0-0-0-0-0-0\--|
D--------2~----2-2-2-2-2-2-2-2-2-2-2-2\--|
A--------2~----2-2-2-2-2-2-2-2-2-2-2-2\--|
E--------0~----0-0-0-0-0-0-0-0-0-0-0-0\--|
Note: you just kind of have to go crazy at the end, 
strumming Em variations.

That's it! Enjoy!
            
Submit corrections



        Devil Child lessons Hard to play? Try these video lessons and learn fast Devil Child lessons
        
↑ Back to top | Tablatures and chords for acoustic guitar and electric guitar, ukulele, drums are parodies/interpretations of the original songs. You may use it for private study, scholarship, research or language learning purposes only