Home » Z » Zero 7 »

Zero 7 - Destiny Tabs

Artists:  A B C D E F G H I J K L M N O P Q R S T U V W X Y Z # 

Destiny Tabs

(ver. 2) Click to play this song!
Zero 7
E |----------------------------------------------------|
B |-----------------------3L-3-----------3-------------|
G |-----------------------3L-3--3--------3--3----------|
D |--------------3h-5--------------3--5--------3-------|
A |--3-------------------------------------------------|
E |----------------------------------------------------|


----------------------------------------------------|
-----------------------3L-3--3-----3L-3-------------|
-----------------------3L-3--3-----3L-3--3----------|
--------------------5-----------5-----------3-------|
--6-------------------------------------------------|
----------------------------------------------------|


----------------------------------------------------|
-----------------------3L-3-----------3-------------|
-----------------------3L-3--3--------3--3----------|
--------------3h-5--------------3--5--------3-------|
--3-------------------------------------------------|
----------------------------------------------------|


----------------------------------------------------|
-----------------------3L-3--------3L-3--------3----|
-----------------------3L-3--------3L-3--------3----|
--------------5-----5--------3--5--------3--5-------|
--6-------------------------------------------------|
----------------------------------------------------|


----------------------------------------------------||
--3--------3--3--------3--3-----------3-------------||
-----------3--------------------3-----------3-------||
-----3--5--------3--5--------5-----5-----5----------||
----------------------------------------------------||
----------------------------------------------------||


---------------------------------------------------|
----------------------3L-3-----------3-------------|
o---------------------3L-3--3--------3--3----------|
o------------3h-5--------------3--5--------3-------|
-3-------------------------------------------------|
---------------------------------------------------|


---------------------------------------------------|||
-----------------------3L-3--3-----3L-3------------|||
-----------------------3L-3--3-----3L-3--3--------o|||
--------------------5-----------5-----------3-----o|||
--6------------------------------------------------|||
---------------------------------------------------|||


---------------------------------------------------|
-6--------6L-6--------6L-6--------6L-6--------6L---|
o------5-----------5-----------5-----------5-------|
o---8-----------8-----------7-----------7----------|
---------------------------------------------------|
---------------------------------------------------|


---------------------------------------------------|||
--6--------6L-6--------5L-5--------5L-5--------5---|||
--------5-----------5-----------5-----------5-----o|||
-----6-----------6-----------5-----------5--------o|||
---------------------------------------------------|||
---------------------------------------------------|||

            
Submit corrections

↑ Back to top | Tablatures and chords for acoustic guitar and electric guitar, ukulele, drums are parodies/interpretations of the original songs. You may use it for private study, scholarship, research or language learning purposes only