Home » Z » Zero 7 »

Zero 7 - Destiny Tabs

Artists:  A B C D E F G H I J K L M N O P Q R S T U V W X Y Z # 

Destiny Tabs

(ver. 3) Click to play this song!
Zero 7
[Intro]

e|-------|
B|-------|
G|-------|
D|-------|
A|--7\0--|
E|-------|

    Am                      Cmaj7
e|---------------------------------------------------|
B|----------0-------------------------0-----0-----0--|
G|------2-----2-----0-------------0-----0-----0------|
D|----2---2-----0h2---2p0-----0h2---2-----2-----2----|
A|--0-----------------------3------------------------|
E|---------------------------------------------------| (x3)

    F           Em          Cmaj7
e|---------------------------------------------------------------------|
B|------------------------------------0-----0-----0-----0-----0-----0--|
G|------2-----------0-------------0-----0-----0-----0-----0-----0------|
D|------3-3---------2-2p0-----0h2---2-----2-----2-----2-----2-----2----|
A|----3-----3-----2---------3------------------------------------------|
E|--1-----------0------------------------------------------------------|        


[Verse 1]

    Am                      Cmaj7
e|---------------------------------------------------|
B|----------0-------------------------0-----0-----0--|
G|------2-----2-----0-------------0-----0-----0------|
D|----2---2-----0h2---2p0-----0h2---2-----2-----2----|
A|--0-----------------------3------------------------|
E|---------------------------------------------------| (x3)
    I lie awake,            I've gone to ground
    I'm watching porn       In my hotel dressing gown
    Now I dream of you      But I still believe

    F                          Em               Cmaj7
e|----------------------------------------------------------------|
B|-------------------------------------------------------0-----0--|
G|------2--------------------------0------------------0----0------|
D|------3-3------------------------2-2p0----------0h2---2----2----|
A|----3-----3--------------------2--------------3-----------------|
E|--1--------------------------0----------------------------------|
    There's only enough for... In this lonely   Hotel suite
        
        
[Verse 2]

    Am                      Cmaj7
e|---------------------------------------------------|
B|----------0-------------------------0-----0-----0--|
G|------2-----2-----0-------------0-----0-----0------|
D|----2---2-----0h2---2p0-----0h2---2-----2-----2----|
A|--0-----------------------3------------------------|
E|---------------------------------------------------| (x3)
    The journey's long      And it feels so bad
    I'm thinking back to    The last day we had
    Old moon fades...       Soon I know I'll be...

    F            Em            Cmaj7
e|-----------------------------------------------|
B|--------------------------------------0-----0--|
G|------2------------0---------------0----0------|
D|------3-3----------2-2p0-------0h2---2----2----|
A|----3-----3------2-----------3-----------------|
E|--1------------0-------------------------------|
    I'm nearly with you        I'm nearly with you
        

[Chorus]
                                               A
e|------------------------------------------------------------|
B|--3----3-------3-----3-----3---3-----3-------2-----2-----2--|
G|----2----2-------2-------2-------2-----2-------2-------2----|
D|-----------------------0-----------------------------2------|
A|--3---3----3---2---2-----------1---1-----1---0---0----------|
E|------------------------------------------------------------| (x3)
    When I'm weak        I draw strength from you
    And when you're lost...   to change your mood
    And when I'm down you...  over me

e|-------------------------------------------|
B|--3----3------3-----3-----3-3-----3--------|
G|----2----2------2-------2-----2---2--------|
D|----------------------0--------------------|
A|--3---3----3--2---2---------1---1-0--------|
E|-------------------------------------------|
    Even though we're miles apart... destiny

        
[Verse 3]

    Am                      Cmaj7
e|---------------------------------------------------|
B|----------0-------------------------0-----0-----0--|
G|------2-----2-----0-------------0-----0-----0------|
D|----2---2-----0h2---2p0-----0h2---2-----2-----2----|
A|--0-----------------------3------------------------|
E|---------------------------------------------------| (x3)
    On a clear day          I'll fly home to you
    I'm bending time        Getting back to you
    Old moon fades...       Soon I know I'll be back with you

    F            Em            Cmaj7
e|-----------------------------------------------|
B|--------------------------------------0-----0--|
G|------2------------0---------------0----0------|
D|------3-3----------2-2p0-------0h2---2----2----|
A|----3-----3------2-----------3-----------------|
E|--1------------0-------------------------------|
    I'm nearly with you        I'm nearly with you 
   
  
[Chorus]
                                               A
e|------------------------------------------------------------|
B|--3----3-------3-----3-----3---3-----3-------2-----2-----2--|
G|----2----2-------2-------2-------2-----2-------2-------2----|
D|-----------------------0-----------------------------2------|
A|--3---3----3---2---2-----------1---1-----1---0---0----------|
E|------------------------------------------------------------| (x3)
    When I'm weak       I draw strength from you
    And when you're lost...  to change your mood
    And when I'm down you...  over me

e|-------------------------------------------|
B|--3----3------3-----3-----3-3-----3--------|
G|----2----2------2-------2-----2---2--------|
D|----------------------0--------------------|
A|--3---3----3--2---2---------1---1-1--------|
E|-------------------------------------------|
    Even though we're miles apart... destiny
  
  
[Outro]

e|---------------------------------------------------------|
B|--3----3------3-----3-----3-3-----3-------2-----2-----2--|
G|----2----2------2-------2-----2-----2-------2-------2----|
D|----------------------0---------------------------2------|
A|--3---3----3--2---2---------1---1-----1---0---0----------|
E|---------------------------------------------------------| (x3)
    I'll fly, I'll fly home
    I'll fly home
    And I'll fly home
   
e|-------------------------------------------|
B|--3----3------3-----3-----3-3-----3--------|
G|----2----2------2-------2-----2---2--------|
D|----------------------0--------------------|
A|--3---3----3--2---2---------1---1-1--------|
E|-------------------------------------------|            
Submit corrections

↑ Back to top | Tablatures and chords for acoustic guitar and electric guitar, ukulele, drums are parodies/interpretations of the original songs. You may use it for private study, scholarship, research or language learning purposes only