» » »

Zeke - God Of Gsxr Tabs

Artists:  A B C D E F G H I J K L M N O P Q R S T U V W X Y Z # 

God Of Gsxr Tabs

(ver. 1) Click to play this song!
Zeke
 Rating:
4/5 (4 votes)
    God Of Gsxr lessons Tabs too difficult? Try these video lessons and learn fast
                god of gsxr


zeke






only 8 secs of the song sorry

eb:------------------------------------------------|
Bb:------------------------------------------------|
Gb:------------------------------------------------|
Db:-4-4-4-4-4--7-7--4-4-4-4-4--7-7--4-4-4-4-4--7-7-|
Ab:-2-2-2-2-2--5-5--2-2-2-2-2--5-5--2-2-2-2-2--5-5-|
Eb:------------------------------------------------|

eb:-----------------|
Bb:-----------------|
Gb:-----------------|
Db:-4-4-4-4-4--7-7--|
Ab:-2-2-2-2-2--5-5--|
Eb:-----------------|

eb:------------------------------------------|
Bb:------------------------------------------|
Gb:------------------------------------------|
Db:------------------------------------------|
Ab:-2-2-2-2-2-2-2-2--7--5--2-2-2-2-2-2--7--5-|
Eb:-0-0-0-0-0-0-0-0--5--3--0-0-0-0-0-0--5--3-|

eb:---------------------------------------|
Bb:---------------------------------------|
Gb:---------------------------------------|
Db:---------------------------------------|
Ab:-2-2-2-2-2-2-2-2--7--5--7-7-7-7-7-7--8-|
Eb:-0-0-0-0-0-0-0-0--5--3--5-5-5-5-5-5--6-|

eb:------------------------------------------|
Bb:------------------------------------------|
Gb:------------------------------------------|
Db:------------------------------------------|
Ab:-2-2-2-2-2-2-2-2--7--5--2-2-2-2-2-2--7--5-|
Eb:-0-0-0-0-0-0-0-0--5--3--0-0-0-0-0-0--5--3-|

eb:---------------------------------------|
Bb:---------------------------------------|
Gb:---------------------------------------|
Db:---------------------------------------|
Ab:-2-2-2-2-2-2-2-2--7--5--7-7-7-7-7-7--8-|
Eb:-0-0-0-0-0-0-0-0--5--3--5-5-5-5-5-5--6-|


hillo son mex

herson
            
Submit corrections

↑ Back to top | Tablatures and chords for acoustic guitar and electric guitar, ukulele, drums are parodies/interpretations of the original songs. You may use it for private study, scholarship, research or language learning purposes only