» » »

Your Demise - Nothing Left But Regret Tabs

Artists:  A B C D E F G H I J K L M N O P Q R S T U V W X Y Z # 

Nothing Left But Regret Tabs

(ver. 1) Click to play this song!
Your Demise
 Rating:
4.2/5 (5 votes)
                okay 
this song is rather easy
it goes something like this 

listen for the strumming patterns

drop D


        Intro
|-------------------|
|-------------------|
|-------------------|
|-4-5-8-7-5---4-5-8-|
|-2-3-6-5-3---2-3-6-|
|-------------------|



       Verse 1
|-----------------------|
|-----------------------|
|-----------------------|
|-4-5-8-7-5---4-5-8-5-7-|  Repeat x2 
|-2-3-6-5-3---2-3-6-3-5-|
|-----------------------|


      Chorus 
|-----------------------|
|-----------------------|
|-----------------------|
|-4-5-8-7-5---4-5-8-5-7-|  Repeat x2 
|-2-3-6-5-3---2-3-6-3-5-|
|-----------------------|


     Verse 2
|-------------|
|-------------|
|-------------|
|-4-7-5-8-3-5-|  Repeat x4
|-2-5-3-6-5-3-|
|-------------|


     Chorus 
|-----------------------|
|-----------------------|
|-----------------------|
|-4-5-8-7-5---4-5-8-5-7-|  Repeat x2 
|-2-3-6-5-3---2-3-6-3-5-|
|-----------------------|


Then Breakdown


|---------------------------|
|---------------------------|
|---------------------------|
|-2---------6-5-3-6-5-5-3-2-|
|-2---------6-5-3-6-5-5-3-2-|
|-2---------6-5-3-6-5-5-3-2-|

then 

|-----------------------|
|-----------------------|
|-2-3-6---6-5-3-6-5-5-3-|  x2
|-2-3-6---6-5-3-6-5-5-3-|
|-2-3-6---6-5-3-6-5-5-3-|
|-----------------------|

then 

|---------------|
|---------------|
|---------------|
|-2-3-6---3-5-3-|
|-2-3-6---3-5-3-|
|---------------|

then 

|-----------------------|
|-----------------------|
|-2-3-6---6-5-3-6-5-5-3-| 
|-2-3-6---6-5-3-6-5-5-3-|
|-2-3-6---6-5-3-6-5-5-3-|
|-----------------------|

and finally 

|----------------|
|----------------|
|----------------|
|-2-3-6---3-5-3-2|
|-2-3-6---3-5-3-2|
|----------------|

ill try and tab some more yd songs when i get a chance 
jack 
            
Submit corrections

↑ Back to top | Tablatures and chords for acoustic guitar and electric guitar, ukulele, drums are parodies/interpretations of the original songs. You may use it for private study, scholarship, research or language learning purposes only