» » »

Young Knives - Weekends And Bleak Days Bass

Artists:  A B C D E F G H I J K L M N O P Q R S T U V W X Y Z # 

Weekends And Bleak Days Bass

(ver. 3) Click to play this song!
Young Knives
 Rating:
3.6/5 (5 votes)
                
Enjoy because its pretty easy

Intro and verse

G-------------------------| Over and over again, if you listen to the song
D-------------------------| you'll get my drift.
A-----7-7-7-7-----4-4-4-4-|
E-5-6---------5-6---------|

Chorus - Not quite sure about this because of videos the bassist goes slides up the neck 
of down like the main guitarist. so im slightly confused but i have done my best.

G----------------------------|
D----------------------------|
A----------------------------|
E-0--1--3--------5-55---5-55-|

Bridge

G---------------------------------------------|
D---------------------------------------------|
A--7-7---------2----1-------7-7--------1----0-|
E---------------------------------------------|

G---------------------------------------------|
D--------------5----4-------------------------|
A--7-7----------------------7-7--------2----1-|
E---------------------------------------------|

Thats it i guess its quite easy.

The last little slow bit.

G--------------------------------------------------|
D--------------------------------------------------|
A--------------------------------------------------|
E---5---------------7---------------5------------7-|

G-------------------------------------------------|
D-------------------------------------------------|
A-------------------------------------------------|
E---5-------------7-7-7-7-7-7-7---77777777--------|

And now thats it, just listen to the song to get the timings.

Thanks
            
Submit corrections

↑ Back to top | Tablatures and chords for acoustic guitar and electric guitar, ukulele, drums are parodies/interpretations of the original songs. You may use it for private study, scholarship, research or language learning purposes only