» » »

You Me At Six - Spell It Out Tabs

Artists:  A B C D E F G H I J K L M N O P Q R S T U V W X Y Z # 

Spell It Out Tabs

(ver. 2) Click to play this song!
You Me At Six
 Rating:
4.3/5 (22 votes)

 Spell It Out lessons Tabs too difficult? Try these video lessons and learn fast
 
                [Intro]
         e|--------------------------|
         B|--------------------------|
         G|-----7-------7------------|
Guitar 1 D|-----------------x2-------|
         A|-5-5-5-5-5-5-5-5----------|
         E|--------------------------|

[Verse]
         e|---------------------------------------------|
         B|---------------------------------------------|
         G|-----7-------7------6---------6--------------|
Guitar 1 D|-----------------x3--------------------------| x3
         A|-5-5-5-5-5-5-5-5----4-4-4-4-4-4-4-4-4-4------|
         E|---------------------------------------------|

[Chorus]
         e|---------------------------------------------|
         B|---------------------------------------------|
         G|-----7-------7------6---------6--------------|
Guitar 1 D|-----------------x3--------------------------|
         A|-5-5-5-5-5-5-5-5----4-4-4-4-4-4-4-4-4-4------|
         E|---------------------------------------------|

         e|-------------------------------------------------|
         B|---------------15~-------------------------------|
         G|--7~-----------14~-----------7~-----------6~-----|
Guitar 2 D|--7~-----------15~-----------7~-----------7~-----|
         A|--5~-------------------------5~-----------4~-----|
         E|-------------------------------------------------|

[Interlude]
         e|---------------------------------------------|
         B|---------------------------------------------|
         G|-----7-------7------6---------6--------------|
Guitar 1 D|-----------------x3--------------------------|
         A|-5-5-5-5-5-5-5-5----4-4-4-4-4-4-4-4-4-4------|
         E|---------------------------------------------|

         e|---------------------------------------------------------------------------|
         B|---------------------------------------------------------------------------|
         G|----------10-----------------10---12b-12br-10~--10/12\10\9~----------------|
Guitar 2 D|---7/10-12---12~------7/10-12--12------------------------------5/10-12~----|
         A|---------------------------------------------------------------------------| 
         E|---------------------------------------------------------------------------|

[Verse 2]
         e|-------------------------------------------|
         B|-------------------------------------------|
         G|-----7-------7------6---------6------------|
Guitar 1 D|-----------------x3------------------------|x4
         A|-5-5-5-5-5-5-5-5----4-4-4-4-4-4-4-4-4-4----|
         E|-------------------------------------------|

         e|---------------------------------------------------|
         B|--------------------15~---------------------14~----|
         G|--------10----------14~------------10-------14~----|
Guitar 2 D|-7/10-12---12~------15~-----7/10-12--12~----14~----|x2
         A|---------------------------------------------------| 
         E|---------------------------------------------------|

[Chorus 2]
         e|-------------------------------------------|
         B|-------------------------------------------|
         G|-----7-------7------6---------6------------|
Guitar 1 D|-----------------x3------------------------|x2
         A|-5-5-5-5-5-5-5-5----4-4-4-4-4-4-4-4-4-4----|
         E|-------------------------------------------|

         e|------------------------------------|
         B|-15~----------------15~-------------|
         G|----14~----------------14~----------|
Guitar 2 D|-------12~----------------15~-------|x2
         A|------------------------------------|
         E|------------------------------------|

         e|-------------------------|
         B|-6~----------------------|
         G|-7~----7~----6~----6~----|
Guitar 3 D|-7~----8~----7~----7~----|x2
         A|-5~----8~----7~----4~----|
         E|-------6~----5~----------|

[Post-Chorus]
         e|-----------------------------------------------------------------|
         B|-----------------------------------------------------------------|
         G|--7777-x-777777777777-x-777777777777-x-777777777777-------6666---|
Guitar 1 D|--7777-x-777777777777-x-777777777777-x-777777777777-8887--7777---|
         A|--5555-x-555555555555-x-555555555555-x-555555555555-8887--5555---|
         E|----------------------------------------------------6665---------|

         e|-----------------------------------------------------------------------|
         B|-----------------------------------------------------------------------|
         G|--7777-x-777777777777-x-777777777777-x-777777777777-x-7777-x-77-666----|
         D|--7777-x-777777777777-x-777777777777-x-777777777777-x-7777-x-77-777----|
         A|--5555-x-555555555555-x-555555555555-x-555555555555-x-5555-x-55-555----|
         E|-----------------------------------------------------------------------|

         e|-------------------------------------------------------------|
         B|-------------------------------------------------------------|
         G|--7777-x-777777777777-x-777777777777-x-777777777777-x-776~---|
         D|--7777-x-777777777777-x-777777777777-x-777777777777-x-777~---|
         A|--5555-x-555555555555-x-555555555555-x-555555555555-x-555~---|
         E|-------------------------------------------------------------|

         e|------------------------------------------------|
         B|------------------------------------------------|
         G|---------------5/7777---------5/7777------------|
Guitar 2 D|------------------------------------------------|x6
         A|---------------3/5555---------3/5555------------|
         E|------------------------------------------------|

         e|-------8~-10~------|
         B|----10~------------|
         G|--7~---------------|
Guitar 3 D|-------------------|x4
         A|-------------------|
         E|-------------------|

[Chorus 3]
         e|----------------------------------------------------------------------------------|
         B|----------------------------------------------------------------------------------|
         G|--7777-x-777777777777-----------------------------------------6666-x-666666666666-|
Guitar 1 D|--7777-x-777777777777-8888-x-888888888888-7777-x-777777777777-7777-x-777777777777-|x2
         A|--5555-x-555555555555-8888-x-888888888888-7777-x-777777777777-4444-x-444444444444-|
         E|----------------------6666-x-666666666666-5555-x-555555555555---------------------|

         e|----------------------------------------------------------------------------------|
         B|----------------------------------------------------------------------------------|
         G|--7777-x-777777777777-----------------------------------------6666-x-6666-x-66667-|
Guitar 1 D|--7777-x-777777777777-8888-x-888888888888-7777-x-777777777777-7777-x-7777-x-77777-|
         A|--5555-x-555555555555-8888-x-888888888888-7777-x-777777777777-4444-x-4444-x-44445-|
         E|----------------------6666-x-666666666666-5555-x-555555555555---------------------|

         e|-------8~-10~------|
         B|----10~------------|
         G|--7~---------------|
Guitar 3 D|-------------------|x4
         A|-------------------|
         E|-------------------|

[Outro]
         e|-----------------------------------------|
         B|-----------------------------------------|
         G|-----7-------7------6---------6----------|
Guitar 1 D|-----------------x3----------------------| x2
         A|-5-5-5-5-5-5-5-5----4-4-4-4-4-4-4-4-4-4--|
         E|-----------------------------------------|            
Submit corrections


        Spell It Out lessons Hard to play? Try these video lessons and learn fast Spell It Out lessons
        
↑ Back to top | Tablatures and chords for acoustic guitar and electric guitar, ukulele, drums are parodies/interpretations of the original songs. You may use it for private study, scholarship, research or language learning purposes only