» » »

You Me At Six - Jaws On The Floor Tabs

Artists:  A B C D E F G H I J K L M N O P Q R S T U V W X Y Z # 

Jaws On The Floor Tabs

(ver. 2) Click to play this song!
You Me At Six
 Rating:
4/5 (4 votes)


 Jaws On The Floor lessons Tabs too difficult? Try these video lessons and learn fast
 
                -------------------------------------------------------------------------------
                             SONG NAME - Band Name
-------------------------------------------------------------------------------

Tuning: Drop D

Pretty new to tabbing so any corrections would be helpful :)

************************************

| /   slide up
| \   slide down
| h   hammer-on
| p   pull-off
| ~   vibrato
| +   harmonic
| x   Mute note
| b   Bend
| pb  Pre-bend
| br  Bend release
| pbr Pre-bend release
| brb Bend release bend

************************************


Intro:

W/ Tremolo

e|--------------------------------------------------------------------|
B|--------------------------------------------------------------------|
G|--------------------------------------------------------------------|
D|-2~--5~--7~-----2~--5~--7~--10~-------------------------------------|
A|-2~--5~--7~-----2~--5~--7~--10~-------------------------------------|
D|-2~--5~--7~-----2~--5~--7~--10~-------------------------------------|


Verse:

Guitar 1:

W/ Tremolo

e|--------------------------------------------------------------------|
B|--------------------------------------------------------------------|
G|--------------------------------------------------------------------|
D|-2~--5~--7~-----2~--5~--7~--10~-------------------------------------|x2
A|-2~--5~--7~-----2~--5~--7~--10~-------------------------------------|
D|-2~--5~--7~-----2~--5~--7~--10~-------------------------------------|

Guitar 2:

(the 121212 are 12s, 101010 are 10s, 111111 are 11s and 999999 are 9s)

e|--------------------------------------------------------------------|
B|-----------------121212-101010-------------------101010-101010------|
G|-7/9-9\--7/9-9\--121212-111111---7/9-9\--7/9-9\--111111-999999------|
D|-7/9-9\--7/9-9\------------------7/9-9\--7/9-9\---------------------|
A|-5/7-7\--5/7-7\------------------5/7-7\--5/7-7\---------------------|
D|--------------------------------------------------------------------|

e|--------------------------------------------------------------------|
B|-----------------121212-101010--------------------10101010----------|
G|-7/9-9\--7/9-9\--121212-111111---7/9-9\--7/9-9\---11111111----------|
D|-7/9-9\--7/9-9\------------------7/9-9\--7/9-9\---------------------|
A|-5/7-7\--5/7-7\------------------5/7-7\--5/7-7\---------------------|
D|--------------------------------------------------------------------|

Chorus:

Guitar 1:

e|--------------------------------------------------------------------|
B|--------------------------------------------------------------------|
G|--------------7------5-----------7----------------------------------|
D|--2-----5-----7-x16--5-x8--5-----7-x16------------------------------|
A|--2-x8--5-x8--5------3-----5-x8--5----------------------------------|
D|--2-----5------------------5----------------------------------------|

Guitar 2:

Hard to hear, but this sounds pretty good:

e|--------|-----10---------------|
B|-12-----|--------1210--10---x7-|
G|-12-x8--|-9h12-------12--12----|
D|--------|----------------------|
A|--------|----------------------|
D|--------|----------------------|

Verse 2:

Guitar 1:

W/ Tremolo

e|--------------------------------------------------------------------|
B|--------------------------------------------------------------------|
G|--------------------------------------------------------------------|
D|-2~--5~--7~-----2~--5~--7~--10~-------------------------------------|
A|-2~--5~--7~-----2~--5~--7~--10~-------------------------------------|x2
D|-2~--5~--7~-----2~--5~--7~--10~-------------------------------------|

Guitar 2:

e|--------------------------------------------------------------------|
B|-----------------121212-101010-------------------101010-101010------|
G|-7/9-9\--7/9-9\--121212-111111---7/9-9\--7/9-9\--111111-999999------|
D|-7/9-9\--7/9-9\------------------7/9-9\--7/9-9\---------------------|
A|-5/7-7\--5/7-7\------------------5/7-7\--5/7-7\---------------------|
D|--------------------------------------------------------------------|

e|--------------------------------------------------------------------|
B|-----------------121212-101010--------------------10101010----------|
G|-7/9-9\--7/9-9\--121212-111111---7/9-9\--7/9-9\---11111111----------|
D|-7/9-9\--7/9-9\------------------7/9-9\--7/9-9\---------------------|
A|-5/7-7\--5/7-7\------------------5/7-7\--5/7-7\---------------------|
D|--------------------------------------------------------------------|

It then goes to a weird second part

Guitar 1:

Palm Muted

e|--------------------------------------------------------------------|
B|--------------------------------------------------------------------|
G|--------------------------------------------------------------------|
D|-2----5----7-----2----5----7----10----------------------------------|
A|-2-x8-5-x8-7-x16-2-x8-5-x8-7-x8-10-x8-------------------------------|
D|-2----5----7-----2----5----7----10----------------------------------|

Guitar 2:

e|--------------------------------------------------------------------|
B|------------------------------------10p8-8-10p8-8h10p8--------------|
G|--7h9-9-9-12-9-12---7h9-9-9-12-9-12---------------------------------|
D|--------------------------------------------------------------------|
A|--------------------------------------------------------------------|x2
D|--------------------------------------------------------------------|

Chorus:

Same as before


Bridge:

Guitar 1:

e|--------------------------------------------------------------------|
B|--------------------------------------------------------------------|
G|-5-5-5--5-5-5--3-3-3--3-3-3-----------------------------------------|
D|-5-5-5--5-5-5--3-3-3--3-3-3--2-2-2--2-2-2--5-5-5--5-5-5----etc.-----|
A|-3-3-3--3-3-3--2-2-2--2-2-2--2-2-2--2-2-2--5-5-5--5-5-5-------------|
D|-----------------------------2-2-2--2-2-2--5-5-5--5-5-5-------------|

Guitar 2:

e|--10--------10------------------------------------------------------|
B|----12-10-----12-10----etc.-----------------------------------------|
G|---------12--------12-----------------------------------------------|
D|--------------------------------------------------------------------|
A|--------------------------------------------------------------------|
D|--------------------------------------------------------------------|

Both Guitars:

e|------------------------|----|--------------------------------------|
B|------------------------|----|--------------------------------------|
G|-5-----3----------------|----|---5-----7----------------------------|
D|-5-x8--3-x8--2-----5----|-x2-|---5-x8--7-x16------------------------|
A|-3-----2-----2-x8--5-x8-|----|---3-----5----------------------------|
D|-------------2-----5----|----|--------------------------------------|

Chorus:

Same as before

Outro:

e|--------------------------------------|
B|--------------------------------------|
G|-----------------7~-------------------|
D|-----------2~-5~-7~-------------------|
A|-----------2~-5~-5~-------------------|
D|-----------2~-5~----------------------|


That's pretty much it, any corrections, suggestions etc. would be handy,
 Remeber to Comment And Rate!
            
Submit corrections



        Jaws On The Floor lessons Hard to play? Try these video lessons and learn fast Jaws On The Floor lessons
        
↑ Back to top | Tablatures and chords for acoustic guitar and electric guitar, ukulele, drums are parodies/interpretations of the original songs. You may use it for private study, scholarship, research or language learning purposes only