» » »

You Me At Six - If I Were In Your Shoes Bass

Artists:  A B C D E F G H I J K L M N O P Q R S T U V W X Y Z # 

If I Were In Your Shoes Bass

(ver. 1) Click to play this song!
You Me At Six
 Rating:
4.4/5 (7 votes)
    If I Were In Your Shoes lessons Tabs too difficult? Try these video lessons and learn fast
                If I were in your shoes
Bass Tab
Tuning: Drop D
1 - G
2 - D
3 - A
4 - D
I Have Written This Tab Because I Think The Other Tabs For Bass Aren't As Good As They 
Be, And They're Also Under Misc Unsigned Area Rather Than The Bands Own Area. "." means 
Mute

Bass Plays Nothing Until 0:05. Then It Plays This (all 11's not 2 1's)
(Verse P1)
G|------------------------------------|
D|------------------------------------|
A|------------------------------------|
D|-9--11-11-9-11-11-------------------| X2
Then
G------------|
D------------|
A------------|
D-44-7-2-----|

This Is All Done Twice Then The Bass Plays The Same But Like This
(Verse P2)
G|--------------------------------------------------------------------|
D|--------------------------------------------------------------------|
A|--------------------------------------------------------------------|
D|-9--11-11-9-11-11-1111111111111111----------------------------------| X2
                   . . . . . . . .
Then
G------------|
D------------|
A------------|
D-44-7-2-----|
This Is Done Twice Then The Pre-Chorus
(Pre-Chorus)
G----------------------------------------------|
D----------------------------------------------|
A----------------------------------------------|
D-0000-2222-4-224-224-224-2--------------------| X2

Then The Chorus
(Chorus)
G-------------------------------------------------------------------------------|
D-------------------------------------------------------------------------------|
A-------------------------------------------------------------------------------|
D-44444444-77777777-79-79-0000000-22222222--44444444-77777777-0000000-22222222--|

Verse P1 X2
Verse P2 X2
Pre-Chorus X2
Chorus X1

Breakdown
Bass Stops At 1:49 And Comes Back In On 1:53 With
G-----------------------------------------------|
D-----------------------------------------------|
A-----------------------------------------------|
D-2-44-4-2-44-4-2-44-4-2-44-742-----------------|

For The Solo It Is The Same As The Pre-Chorus

Then Chorus again

Then A Small Breakdown No Bass 2:34-2:37 Then
G----------------------------------------------------------------|
D----------------------------------------------------------------|
A----------------------------------------------------------------|
D-77777777-0000000-22222222--44444444-77777777-0000000-22222222--|

Ending
G--------------|
D--------------|
A--------------|
D-2-4-2-4------|

Ok This My First Tab Comments, Ratings And Constructive Criticism Welcome
Any Questions PM Me
            
Submit corrections

↑ Back to top | Tablatures and chords for acoustic guitar and electric guitar, ukulele, drums are parodies/interpretations of the original songs. You may use it for private study, scholarship, research or language learning purposes only