» » »

You Am I - Rumble Tabs

Artists:  A B C D E F G H I J K L M N O P Q R S T U V W X Y Z # 

Rumble Tabs

(ver. 2) Click to play this song!
You Am I
 Rating:
3.3/5 (20 votes)

 Rumble lessons Tabs too difficult? Try these video lessons and learn fast
 
                INTRO

  1 + 2 + 3 + 4 + 1 + 2 + 3 + 4
--7---7-----5-5-----------5---6--------|
--7---7-----5-5---7---7---5---6--------|
--8---8-----6-6---7---7---6---7--------|
--9---9-----7-7---7---7---7---8   x  3-|
--9---9-----7-7---5---5---7---8--------|
--7---7-----5-5-----------5---6--------|
(then...)
1 + 2 + 3 + 4 + 1 + 2 + 3 + 4 +
2-2-----2-2-----2-2-----0-0-0-0-|
0-0-----0-0-----0-0-----0-0-0-0-|
2-2-----2-2-----2-2-----1-1-1-1-|
1-1-----1-1-----1-1-----0-0-0-0-|  x 2
2-2-----2-2-----2-2-----2-2-2-2-|
--------------------------------|


VERSE

 Riff 1

       1 + 2 + 3 + 4 + 1 + 2 + 3 + 4 +
       2-2-----2-2-----2-2-----0-0-0-0-|
       0-0-----0-0-----0-0-----0-0-0-0-|
       2-2-----2-2-----2-2-----1-1-1-1-|
       1-1-----1-1-----1-1-----0-0-0-0-|
       2-2-----2-2-----2-2-----2-2-2-2-|
       --------------------------------|
Got a new hair- cut.....

Riff 2

    1   2   3   4
    3---3---2---2-|
    3---3---2---2-|
    4---4---3---3-|
    5---5---4---4-|
    5---5---4---4-|
    3---3---2---2-|

Riff 1 (x 5)

Riff 3 (strum chords shown)

1   2   3   4   1   2   3   4   1   2   3   4
3---3---2---2---7---------------3---3---2---2--|
3---3---2---2---7---------------3---3---2---2--|
4---4---3---3---8---------------4---4---3---3--|
5---5---4---4---9---------------5---5---4---4--|
5---5---4---4---9---------------5---5---4---4--|
3---3---2---2---7---------------3---3---2---2--|

1   2   3   4   1   2   3   4   1   2   3   4   1   2   3   4
4----------------------------7-----------------------------|
6----------------------------9-----------------------------|
4----------------------------7-----------------------------|
6----------------------------6-----------------------------|
4----------------------------6-----------------------------|
-----------------------------------------------------------|

CHORUS

Part 1

  1 + 2 + 3 + 4 + 1 + 2 + 3 + 4
--7---7-----5-5-----------5-6-7-------|
--7---7-----5-5---7---7---5-6-7-------|
--8---8-----6-6---7---7---6-7-8-------|
--9---9-----7-7---7---7---7-8-9   x 3-|
--9---9-----7-7---5---5---7-8-9-------|
--7---7-----5-5-----------5-6-7-------|

  R---A---D-I-O....

Part 2

  1 + 2 + 3 + 4
--7---7-----5-5-|
--7---7-----5-5-|
--8---8-----6-6-|
--9---9-----7-7-|
--9---9-----7-7-|
--7---7-----5-5-|

  R---A---D-I-O

Part 3

1 2 3 4 1 2 3 4 1 2 3 4 1 2 3 4 (drum fill)
T               T
2---------------3---------------|
3---------------3---------------|
2---------------0---------------|
0---------------0---------------|
----------------2---------------|
----------------3---------------|
VERSE

Riff 1 (x 5)
Riff 3 (x 1)

CHORUS

Part 1 (x7)
Part 2 (x1)
Part 3 (x1)

CODA

7-7-7---7-7-7---7-7-7---7-7-7---7--7------|
7-7-7---7-7-7---7-7-7---7-7-7---9--9------|
8-8-8---8-8-8---8-8-8---8-8-8---7--7------|
9-9-9---9-9-9---9-9-9---9-9-9---9--9  x 3-|
9-9-9---9-9-9---9-9-9---9-9-9---7--7------|
7-7-7---7-7-7---7-7-7---7-7-7-------------|

7-7-7---7-7-7---7--10---|
7-7-7---7-7-7---7--10---|
8-8-8---8-8-8---8--11---|
9-9-9---9-9-9---9--12---|
9-9-9---9-9-9---9--12---|
7-7-7---7-7-7---7—-10---|

Intro

Verse

Riff 1
Got a new haircut
It cost me just six bucks
Riff 2
Filled a plastic bag with stuff I need in a big dumb car I'm off my knees
Fill it up and start over again

Riff 1
Ooh it's the rumble and moan
Transistor AM cassette drone
Riff 2
It's the sound without a home address and hydromatic hopelessness
Fill it up and start over again
Yeah fill it up and start over again and again

All night!

Chorus

Part 1
R. A. D. I. O.
Hit me hard and hit me low
Static engine blow the scene a rumble in the old machine
Part 2
R. A. D. I. O.
Ah hit me just like Lionel Rose
Part 3
R. A. D. I. O.
A rumble in the old machine

Verse

Riff 1
I heard stomach and soul
A rumble underneath my toes
Riff 2
And it didn't come with a clear face, designer punk or daily rate
Fill it up and start over again
Yeah fill it up and start over again and again

All night!

Chorus

Part 1
R. A. D. I. O.
Hit me hard and hit me low
Static engine blow the scene a rumble in the old machine
Part 2
R. A. D. I. O.
Ah hit me just like Lionel Rose
Part 3
R. A. D. I. O.
A rumble in the old machine

Coda
Ronnie James D. I. O.
Fell down like Bocephus under all the noise and grease
Automatic mono style R.I.P. it up monkee style            
Submit corrections


        Rumble lessons Hard to play? Try these video lessons and learn fast Rumble lessons
        
↑ Back to top | Tablatures and chords for acoustic guitar and electric guitar, ukulele, drums are parodies/interpretations of the original songs. You may use it for private study, scholarship, research or language learning purposes only