» » »

You Am I - How Much Is Enough? Tabs

Artists:  A B C D E F G H I J K L M N O P Q R S T U V W X Y Z # 

How Much Is Enough? Tabs

(ver. 2) Click to play this song!
You Am I
 Rating:
4/5 (4 votes)

 How Much Is Enough? lessons Tabs too difficult? Try these video lessons and learn fast
 
                Tuning EACGBe

Capo 3rd fret

Csus2 E7/C F  G  Em  A F5 D/F#
e-0---0----0--0--0---0--------|
B-3---3----0--0--0---0--------|
G-0---1----0--0--0---0--------|
C-0---0----0--0--0---0--------|
A-3---3----3--5--2---7-3--5---|
E----------1--3--0---5-1--2---|

INTRO   Csus2 / E7/C
        Csus2 / E7/C

VERSE 1

         Csus2
Would it stain
       E7/C                     Csus2
If the lights fell down on your name
          E7/C                      Csus2
And each face began to look all the same
    E7/C     F
How much is enough?
        G                      Em                       A
Did you ever want to just lose touch with everybody you know?

LINK (Relative to capo)
e---------------------------------|
B---------------------------------|
G---------------------------------|
C-5-5-5-5-5-5-5-5-----------------|
A-----------------5-5-5-5-5-5-5-5-|
E---------------------------------|

(x2)

VERSE 2

       Csus2
In the morning
            E7/C             Csus2
When you've one tears tasted away
                E7/C                        Csus2
The last of the red and all the records you play
    E7/C     F
How much is enough?
        G                      Em                       A
Did you ever want to just lose touch with everybody who hurt?
F
Did you ever want to join a collective?
D/F#
Or throw a party just to make sure you missed it?
F
Did you ever wanna be a collective?

Csus2 / E7/C
Csus2 / E7/C

             Csus2
Would you sell hell
       E7/C                    Csus2
To the dealer with the lowest cause
        E7/C                 Csus2
And you burn every preceding flaw
    E7/C
How much is enough?

        G                      Em                       A
Did you ever want to get in touch with somebody you hurt?
F
Offer up some kind of collective
D/F#
So you can never ever be left selected
F
Did you ever want to join a collective?


OUTRO

Csus2 / G/B / A / G / F / Em / F / Em

SOLO

  BU    BU    BU     BU      BU      BU       BU       BU       BU
e-----------------------------------------------------------------------|
B-5-----5-----5-----8-------8-------8--------10-------10-------10-------|
G-7-(9)-7-(9)-7-(9)-10-(12)-10-(12)-10-(12)--12-(14)--12-(14)--12-(14)--|
C-----------------------------------------------------------------------|
A-----------------------------------------------------------------------|
E-----------------------------------------------------------------------|

  BU      BU      BU      BU    BU    BU    BU      BU      BU      BU
e-------------------------------------------------------------------------|
B-8-------8-------8-------5-----5-----5-----8-------8-------8-------5-----|
G-10-(12)-10-(12)-10-(12)-7-(9)-7-(9)-7-(9)-10-(12)-10-(12)-10-(12)-7-----|(9)
C-------------------------------------------------------------------------|
A-------------------------------------------------------------------------|
E-------------------------------------------------------------------------|


If the lights, they fell
Do you think you could tell
just how much?

If the lights, they fell
Do you think you could tell
just how much?

End on Csus2            
Submit corrections


        How Much Is Enough? lessons Hard to play? Try these video lessons and learn fast How Much Is Enough? lessons
        
↑ Back to top | Tablatures and chords for acoustic guitar and electric guitar, ukulele, drums are parodies/interpretations of the original songs. You may use it for private study, scholarship, research or language learning purposes only