» » »

You Am I - Billy Tabs

Artists:  A B C D E F G H I J K L M N O P Q R S T U V W X Y Z # 

Billy Tabs

(ver. 2) Click to play this song!
You Am I
 Rating:
2.8/5 (28 votes)

 Billy lessons Tabs too difficult? Try these video lessons and learn fast
 
                Capo 2nd fret

CHORDS USED:
G  E  D  B  A
3--0--2-------|
3--0--3--4--2-|
0--1--2--4--2-|
0--2--0--4--2-|
2--2-----2--0-|
3--0----------|

INTRO
7-7-7-7-7-7-10---------------------|
7-7-7-7-7-7-10---------------------|
8-8-8-8-8-8-11---------------------|
9-9-9-9-9-9-12---------------------|
9-9-9-9-9-9-12---------------------|
7-7-7-7-7-7-10---------------------|

(DRUM BEAT)

RIFF 1
7--7--5-7-7-5-|
7--7--5-7-7-5-|
8--8--6-8-8-6-|
9--9--7-9-9-7-|
9--9--7-9-9-7-|
7--7--5-7-7-5-|

(x4)

VERSE

Strumming pattern
1     2    3     4

 7----7------------|
10---10------------|
 8----8------------|
 9-- -9------------|
 9----9------------|
 7----7------------|

He's the man without a plan
To shake it up and set you down again
A Bo Diddely walk no more messing round the block
17 watts is all of what he's got


CHORUS

        G                E
Take me out and mess me 'round
           G               E
Don't want style without a sound.
         D                 G
It ain't clean but dig the scene
    B                           A
And I heard the message now the message is mine.

VERSE

RIFF 1
I heard the man he brought the news
He came in loud and out of tune
Now asleep like a bus conductor dribble like a dog.
Double timing scratch to the sound I'm thinking of

CHORUS
        G                E
Take me out and mess me 'round
           G               E
Don't want style without a sound.
         D                 G
It ain't clean but dig the scene
    B                           A
And I heard the message now the message is mine.
B                   A
I heard the message,  come on Timmy!

SOLO

-------------------------------------|
-------------------------------------|
9--7-----7-9-9(11)-9---9-------------|
------9--------------7---7-5---------|
-------------------------------------|
-------------------------------------|

---------|
---------|
---------|
7-7-7-7--|
7-7-8-9--|
---------|
(x4)

    BU           BU
-------------------------------------|
------7-7-7-7-------7-7-7--10--9---7-|
9-(11)--------9-(11)-------7---7---7-|
-------------------------------------|
-------------------------------------|
-------------------------------------|
                  BU
10-9-8-------------|
7--8-8-------------|
-------8--10--(12--|
-------------------|
-------------------|
-------------------|

CHORUS
    G             E
All night just be there
           G                 E
Don't make sense you think I care?

D         G

B                        A
I heard the message, the message is mine
B                        A
I heard the message, the message is mine
B                        A
I heard the message, the message is mine!

CODA

7--7--5-7-7-5-|
7--7--5-7-7-5-|
8--8--6-8-8-6-|
9--9--7-9-9-7-|
9--9--7-9-9-7-|
7--7--5-7-7-5-|

(x4) then:

7----7----7----7-----7--------------|
10---10---10---10----10-------------|
8----8----8----8-----8--------------|
9----9----9----9-----9--------------|
9----9----9----9-----9--------------|
7----7----7----7-----7--------------|            
Submit corrections


        Billy lessons Hard to play? Try these video lessons and learn fast Billy lessons
        
↑ Back to top | Tablatures and chords for acoustic guitar and electric guitar, ukulele, drums are parodies/interpretations of the original songs. You may use it for private study, scholarship, research or language learning purposes only