» » »

Yeng Constantino - Pangarap Lang Tabs

Artists:  A B C D E F G H I J K L M N O P Q R S T U V W X Y Z # 

Pangarap Lang Tabs

(ver. 1) Click to play this song!
Yeng Constantino
 Rating:
4/5 (4 votes)

 Pangarap Lang lessons Tabs too difficult? Try these video lessons and learn fast
 
                
Para sa lahat ng mga beginners na tulad ko and sa lahat ng mga unwanted lead guitarist 
tulad ko. Fight2x he3x

Intro:
         E               G#m              C#m                 A
e ----------------I---------------I-------------------I--------11-----------|I
B ----------/9-9\-I--------/9-----I--------/9---------I--------11-7-9-7-7---|I
G ---/9-8-9-------I-/9-8-9--------I-/9-8-9----7-9-8-6-I-/9-8-9--------------|I
D ----------------I-----------13\-I-------------------I---------------------|I
A ----------------I---------------I-------------------I---------------------|I
E ----------------I---------------I-------------------I---------------------|I
         E               G#m                    C#m
e ----------------I---------------------I--------11------------|I
B ----------/9-9\-I--------/9-9---------I--------11-7-9-7-7----|I
G ---/9-8-9-------I-/9-8-9------7-9-8-6-I-/9-8-9---------------|I
D ----------------I---------------------I----------------------|I
A ----------------I---------------------I----------------------|I
E ----------------I---------------------I----------------------|I
                  A
e ---------------------------------------|I
B ---------------------------------------|I
G --9-9-8-8-4-4-8-8-2-2-4-4--------------|I
D ---------------------------------------|I
A ---------------------------------------|I
E ---------------------------------------|I
                 p.m.
Verse:
      With delay effects and minimum bass effects,minimal volume compare to
      other effects. Use powerchords and single strum on each chord.
    Em     G#m      Em     C#m    A      Bm
e --x--0----x--0----x--0----x--4--x--0----x--7----x-x---------|I
B --x----0--x----0--x----0--x--4--x----0--x----7--x-x---------|I
G --x-------x-------x-------6-----x-------x-------x-x---------|I
D --2-------6-------2-------6-----7-------9-------7-9---------|I
A --2-------6-------2-------4-----7-------9-------7-9---------|I
E ----------4---------------------5-------7-------5-7---------|I

Chorus: distort 1
   Em   G#m  C#m   A A A    B B B
e --x----x----x----x-x-x----x-x-x---------|I
B --x----x----x----x-x-x----x-x-x---------|I
G --x----x----6----x-x-x----x-x-x---------|I
D --2----6----6----7-7-7---/9-9-9---------|I
A --2----6----4----7-7-7---/9-9-9---------|I
E -------4---------5-5-5---/7-7-7---------|I

( Repeat verse but without delay,dist and palm mute then release )
( repeat Chorus )
            
Submit corrections


        Pangarap Lang lessons Hard to play? Try these video lessons and learn fast Pangarap Lang lessons
        
↑ Back to top | Tablatures and chords for acoustic guitar and electric guitar, ukulele, drums are parodies/interpretations of the original songs. You may use it for private study, scholarship, research or language learning purposes only