» » »

Yelawolf - Fiddle Me This Tabs

Artists:  A B C D E F G H I J K L M N O P Q R S T U V W X Y Z # 

Fiddle Me This Tabs

(ver. 1) Click to play this song!
Yelawolf
 Rating:
4.3/5 (29 votes)

 Fiddle Me This  lessons Tabs too difficult? Try these video lessons and learn fast
 
                0:49

e|---------------------------------|---------------------------------|
B|---------------------------------|------pb5r-----------------------|
G|-/7b--pb5r--5---5---6b\----------|-/7b--pb5r--5---5---6b\----------|
D|--------------5---5--------------|--------------5---5--------------|
A|-------------------------5b------|-------------------------5b--8~\-|
E|-----------------------------8~\-|---------------------------------|

                                       Rhythm
e|------------------------------------|----------------------|
B|------------------------------------|----------------------|
G|-/7b---5~\--5---5---6b\-------------|----------------------|
D|--------------5---5-------------10\-|----------------------|
A|-------------------------5b-----10\-|-5-7-8-10-8-6-8--5-5\-|
E|-----------------------------8~-8-\-|-3-5-6-8--6-4-6--3-3\-|
                                      | Lead(Acoustic)
                                      |------------------------|
                                      |------------------------|
                                      |------------------------|
                                      |------------------------|
                                      |------------------------|
                                      |-5-7-8-8/10-8-6-8--5-5~-| 
                                  
1:03

e|---------------------------------|---------------------------------|
B|---------------------------------|---------------------------------|
G|-/7b---5~\--5---5---6b\----------|-/7b---5~\--5---5---6b\----------|
D|--------------5---5--------------|--------------5---5--------------|
A|-------------------------5b------|-------------------------5b--8~\-|
E|-----------------------------8~\-|---------------------------------|

                                       Rhythm
e|------------------------------------|---------------------------|
B|------------------------------------|---------------------------|
G|-/7b---5~\--5---5---6b\-------------|---------------------------|
D|--------------5---5-------------10\-|---------------------------|
A|-------------------------5b-----10\-|-5-7-8-10-8-6-8--5-5\------|
E|-----------------------------8~-8-\-|-3-5-6-8--6-4-6--3-3\-/12\-|
                                      | Lead(Acoustic)
                                      |------------------------|
                                      |------------------------|
                                      |------------------------|
                                      |------------------------|
                                      |------------------------|
                                      |-5-7-8-8/10-8-6-8--5-5~-| 

1:31

(Acoustic)
e|---------------------------------|---------------------------------|
B|---------------------------------|---------------------------------|
G|-/7b---5~\--5---5---6b\----------|-/7b---5~\--5---5---6b\----------|
D|--------------5---5--------------|--------------5---5--------------|
A|-------------------------5b------|-------------------------5b--8~\-|
E|-----------------------------8~\-|---------------------------------|
                                  
e|---------------------------------|------------------------|
B|---------------------------------|------------------------|
G|-/7b---5~\--5---5---6b\----------|------------------------|
D|--------------5---5--------------|------------------------| x2 
A|-------------------------5b------|------------------------|
E|-----------------------------8~\-|-5-7-8-8/10-8-6-8--5-5~-|
  
                                  
1:59

e|---------------------------------|---------------------------------|
B|---------------------------------|------pb5r-----------------------|
G|-/7b--pb5r--5---5---6b\----------|-/7b--pb5r--5---5---6b\----------|
D|--------------5---5--------------|--------------5---5--------------|
A|-------------------------5b------|-------------------------5b--8~\-|
E|-----------------------------8~\-|---------------------------------|

                                       Rhythm
e|------------------------------------|----------------------|
B|------------------------------------|----------------------|
G|-/7b---5~\--5---5---6b\-------------|----------------------|
D|--------------5---5-------------10\-|----------------------|
A|-------------------------5b-----10\-|-5-7-8-10-8-6-8--5-5\-|
E|-----------------------------8~-8-\-|-3-5-6-8--6-4-6--3-3\-|
                                      | Lead(Acoustic)
                                      |------------------------|
                                      |------------------------|
                                      |------------------------|
                                      |------------------------|
                                      |------------------------|
                                      |-5-7-8-8/10-8-6-8--5-5~-|
                                  
2:14

(Acoustic)                    
e|---------------------------------|---------------------------------|
B|---------------------------------|---------------------------------|
G|-/7b---5~\--5---5---6b\----------|-/7b---5~\--5---5---6b\----------|
D|--------------5---5--------------|--------------5---5--------------|
A|-------------------------5b------|-------------------------5b--8~\-|
E|-----------------------------8~\-|---------------------------------|

                                     2:23 Rhythm
e|---------------------------------|-------------------------------|
B|---------------------------------|-------------------------------| 
G|-/7b---5~\--5---5---6b\----------|-------------------------------|  
D|--------------5---5--------------|-10\---------------------------|  
A|-------------------------5b------|-10\-5-7-8-10-8-6-8--5-5\------| 
E|-----------------------------8~\-|-8-\-3-5-6-8--6-4-6--3-3\-/12\-|
                                   | Lead(Acoustic)
                                   |------------------------|
                                   |------------------------|
                                   |------------------------|
                                   |------------------------|
                                   |------------------------|
                                   |-5-7-8-8/10-8-6-8--5-5~-|            
Submit corrections


        Fiddle Me This  lessons Hard to play? Try these video lessons and learn fast Fiddle Me This  lessons
        
↑ Back to top | Tablatures and chords for acoustic guitar and electric guitar, ukulele, drums are parodies/interpretations of the original songs. You may use it for private study, scholarship, research or language learning purposes only