» » »

Yelawolf - Have A Great Flight Tabs

Artists:  A B C D E F G H I J K L M N O P Q R S T U V W X Y Z # 

Have A Great Flight Tabs

(ver. 1) Click to play this song!
Yelawolf
 Rating:
5/5 (1 vote)

 Have A Great Flight  lessons Tabs too difficult? Try these video lessons and learn fast
 
                Tuning: Standard - Capo on 5 - Phrase is repeated and Finger picked throughout

E|-----------------------------------------------------------------------------------|
B|-----0--------0--------0--------0--------0--------0--------0--------0--------0-----|
G|--------0--------0--------0--------0--------0--------0--------0--------0--------0--|
D|-----------------------------------------------------------------------------------|
A|-----------2-----------------2-----------------2-----------------2-----------------|
E|--0-----------------0-----------------0-----------------3-----------------3--------|


E|--------------------------------------------|
B|-----------0--------0--------0--------0-----|
G|--------------0--------0--------0--------0--|
D|--------------------------------------------|
A|--2--5-----------0--------3--------2--------|
E|--------2-----------------------------------|
            
Submit corrections


        Have A Great Flight  lessons Hard to play? Try these video lessons and learn fast Have A Great Flight  lessons
        
↑ Back to top | Tablatures and chords for acoustic guitar and electric guitar, ukulele, drums are parodies/interpretations of the original songs. You may use it for private study, scholarship, research or language learning purposes only