» » »

Yelawolf - American You Tabs

Artists:  A B C D E F G H I J K L M N O P Q R S T U V W X Y Z # 

American You Tabs

(ver. 1) Click to play this song!
Yelawolf
 Rating:
3/5 (29 votes)

 American You  lessons Tabs too difficult? Try these video lessons and learn fast
 
                Intro:
   A   C#m D   A   F#m E   D      
e|-5---4---5---5---2---7---5---------|
B|-5---5---7---5---2---9---7---------|
G|-6---6---7---6---2---9---7-------2-|
D|-7---6---7---7---4---9---7--2h4--2-|
A|-7---4---5---7---4---7---5-------0-|
E|-5---x---x---5---2---x---x---------|


Verse 1:
   A       C#m                               D           A       
e|-5-------4---------------------------------5-----------5-------------|
B|-5-------5---------------------------------7-----------5-------------|
G|-6-------6---------------------------------7-----------6-------------|
D|-7-------6---------------------------------7-----------7-------------|
A|-7-------4---------------------------------5-----------7-------------|
E|-5-------x---------------------------------x-----------5-------------|
   Man you got it all worked out, don't you? Old pair of shoes
   F#m   E                                       D      
e|-2-----7---------------------------------------5---------------------|
B|-2-----9---------------------------------------7---------------------|
G|-2-----9---------------------------------------7-----------------2---|
D|-4-----9---------------------------------------7--------2h4------2---|
A|-4-----7---------------------------------------5-----------------0---|
E|-2-----x---------------------------------------x---------------------|
   Never wear your heart on your sleeve cause it don't go with the suit
   A         C#m                   D                   A       
e|-5---------4---------------------5-------------------5---------------|
B|-5---------5---------------------7-------------------5---------------|
G|-6---------6---------------------7-------------------6---------------|
D|-7---------6---------------------7-------------------7---------------|
A|-7---------4---------------------5-------------------7---------------|
E|-5---------x---------------------x-------------------5---------------|
   You got a bad, bad woman with a young little pretty face
   F#m           E                             D      
e|-2-------------7-----------------------------5-----------------------|
B|-2-------------9-----------------------------7-----------------------|
G|-2-------------9-----------------------------7-------------------2---|
D|-4-------------9-----------------------------7---------------2h4-2---|
A|-4-------------7-----------------------------5-------------------0---|
E|-2-------------x-----------------------------x-----------------------|
   They told you not to go get married but you went and did it anyway


Chorus:
           A   C#m             D        A       
e|---------5---4---------------5--------5------------------------------|
B|---------5---5---------------7--------5------------------------------|
G|---------6---6---------------7--------6------------------------------|
D|---------7---6---------------7--------7------------------------------|
A|---------7---4---------------5--------7------------------------------|
E|---------5---x---------------x--------5------------------------------|
   Singin', oh sweet sounds of American you
   F#m          E                     D      
e|-2------------7---------------------5--------------------------------|
B|-2------------9---------------------7--------------------------------|
G|-2------------9---------------------7-------2------------------------|
D|-4------------9---------------------7---2h4-2------------------------|
A|-4------------7---------------------5-------0------------------------|
E|-2------------x---------------------x--------------------------------|
   Never miss a Sunday service, never got tattoos
   A     C#m                         D         A       
e|-5-----4---------------------------5---------5-----------------------|
B|-5-----5---------------------------7---------5-----------------------|
G|-6-----6---------------------------7---------6-----------------------|
D|-7-----6---------------------------7---------7-----------------------|
A|-7-----4---------------------------5---------7-----------------------|
E|-5-----x---------------------------x---------5-----------------------|
   Every time you drive by wavin', I see right through
e|---------2-------7--------5------------------------------------------|
B|---------2-------9--------7------------------------------------------|
G|---------2-------9--------7--------2---------------------------------|
D|---------4-------9--------7----2h4-2---------------------------------|
A|---------4-------7--------5--------0---------------------------------|
E|---------2-------x--------x------------------------------------------|
   Doo doo doo doo doo doo, f**k you too


Verse 2:
Same as Verse 1


Chorus:
           A   C#m             D        A       
e|---------5---4---------------5--------5------------------------------|
B|---------5---5---------------7--------5------------------------------|
G|---------6---6---------------7--------6------------------------------|
D|---------7---6---------------7--------7------------------------------|
A|---------7---4---------------5--------7------------------------------|
E|---------5---x---------------x--------5------------------------------|
   Singin', oh sweet sounds of American you
   F#m          E                     D      
e|-2------------7---------------------5--------------------------------|
B|-2------------9---------------------7--------------------------------|
G|-2------------9---------------------7-------2------------------------|
D|-4------------9---------------------7---2h4-2------------------------|
A|-4------------7---------------------5-------0------------------------|
E|-2------------x---------------------x--------------------------------|
   Never miss a Sunday service, never got tattoos
   A     C#m                         D         A       
e|-5-----4---------------------------5---------5-----------------------|
B|-5-----5---------------------------7---------5-----------------------|
G|-6-----6---------------------------7---------6-----------------------|
D|-7-----6---------------------------7---------7-----------------------|
A|-7-----4---------------------------5---------7-----------------------|
E|-5-----x---------------------------x---------5-----------------------|
   Every time you drive by wavin', I see right through
e|---------2-------7--------5------------------------------------------|
B|---------2-------9--------7------------------------------------------|
G|---------2-------9--------7--------2---------------------------------|   x2
D|---------4-------9--------7----2h4-2---------------------------------|
A|---------4-------7--------5--------0---------------------------------|
E|---------2-------x--------x------------------------------------------|
   Doo doo doo doo doo doo, f**k you too


Verse 3:
e|---------------------------------------------------------------------|
B|---------------------------------------------------------------------|
G|--------------6-----------------------7------------------------------|
D|-7------------6-x8--------------------7-x6-----------------7---------| palm muted
A|-7-x6---------4-----------------------5--------------------7-x8------|
E|-5---------------------------------------------------------5---------|
   I believe in the modest dream, ain't lookin' for a pot of gold

e|---------------------------------------------------------------------|
B|---------------------------------------------------------------------|
G|-------------------9--------------------7----------------------------|
D|-4-----------------9-x8-----------------7-x6----------7--------------| palm muted
A|-4-x6--------------7--------------------5-------------7-x8-----------|
E|-2----------------------------------------------------5-----7\5-5h7--|
   A 6 pack and some good marijuana I can watch my mama roll

e|---------------------------------------------------------------------|
B|---------------------------------------------------------------------|
G|-----------------6-----------------------7---------------------------| palm muted
D|-7---------------6-x8--------------------7-x6--------------7---------|
A|-7-x6------------4-----------------------5-----------------7-x8------|
E|-5---------------------------------------------------------5---------|
   I believe I can buy a few things like a house with a nice pool

e|---------------------------------------------------------------------|
B|---------------------------------------------------------------------|
G|------------------9------------------------------7-------------------|
D|-4----------------9-x8---------------------------7-x6-----------7----| palm muted
A|-4-x6-------------7------------------------------5--------------7-x8-|
E|-2--------------------------------------------------------------5----|
   Invite my nobody friends to the party and we'll be in it, f**k you


During Rap Verse:

Starts at: "Your daddy told you that girl was nothin' but a problem..."
e|---------------------------------------------------------------------|
B|-2-2--5-5-5--7-7--2-2-2--10-10--9-9-9--7-7--2-2-2--------------------|
G|---------------------------------------------------------------------| x3
D|---------------------------------------------------------------------| 
A|---------------------------------------------------------------------|
E|---------------------------------------------------------------------|
   

Start at: "You make something out of nothing, you make money for a living..."
e|---------------------------------------------------------------------|
B|---------------------------------------------------------------------|
G|-------6-----7-----------------------7-------------------------------|
D|-7-----6-x8--7-x6--7-----4-----9-----7-x6--7-------------------------| x2 palm muted
A|-7-x6--4-----5-----7-x8--4-x6--9-x8--5-----7-x8----------------------|
E|-5-----------------5-----2-----7-----------5-------------------------|            
Submit corrections


        American You  lessons Hard to play? Try these video lessons and learn fast American You  lessons
        
↑ Back to top | Tablatures and chords for acoustic guitar and electric guitar, ukulele, drums are parodies/interpretations of the original songs. You may use it for private study, scholarship, research or language learning purposes only