» » »

Yashin - Get Loose Bass

Artists:  A B C D E F G H I J K L M N O P Q R S T U V W X Y Z # 

Get Loose Bass

(ver. 1) Click to play this song!
Yashin
 Rating:
4/5 (4 votes)


 Get Loose lessons Tabs too difficult? Try these video lessons and learn fast
 
                Drop C

Verse 
F|-------------------------------|
C|-------------------------------|
G|-----------------------2222410-|
C|444444-7777777-0000000--------4|x2
(One and zero fyi)

Chorus 1 
F|-------------------------|
C|-------------------------|
G|-------------------------|
C|0-------04------0------02|

Chorus 2
F|------------------------------------|
C|------------------------------------|
G|------------------------------------|
C|0-0000-00004-4444-4440000--000222222|
Follow the beat of the kick drum

Bridge                  End with this
F|----------------------|-----------|
C|----------------------|-----------|
G|---------5-----5------|55555-77777|
C|4----0-7---0-7---4-4-0|-----------|

Final verse
F|-------------------|
C|-------------------|
G|REST-------2222410-|
C|------------------4|
(Then play verse as usual)
            
Submit corrections



        Get Loose lessons Hard to play? Try these video lessons and learn fast Get Loose lessons
        
↑ Back to top | Tablatures and chords for acoustic guitar and electric guitar, ukulele, drums are parodies/interpretations of the original songs. You may use it for private study, scholarship, research or language learning purposes only