» » »

XXXTENTACION - Sad Chords

Artists:  A B C D E F G H I J K L M N O P Q R S T U V W X Y Z # 

Sad Chords

(ver. 1) Click to play this song!
XXXTENTACION
 Rating:
4.4/5 (11 votes)

 Sad lessons Tabs too difficult? Try these video lessons and learn fast
 
                [Intro]

e|--3---------------4--3--1----1----------3--------1--------1--------3-------|
B|----------4--------------------------4--------4--------4--------4----------|
G|---------------------------------------------------------------------------|
D|---------------------------------------------------------------------------|
A|---------------------------------------------------------------------------|
E|---------------------------------------------------------------------------|
                                                                                  x2
e|------1--------1-----------------------------------------------------------|
B|---4--------4--------------------------------------------------------------|
G|---------------------------------------------------------------------------|
D|---------------------------------------------------------------------------|
A|---------------------------------------------------------------------------|
E|---------------------------------------------------------------------------|


[Chorus]

e|---------------------------------------------------------------------------|
B|-4----1--------------------------------------------------------------------|
G|-----------0--0--0--0--0--0--0--0------------------------------------------|     x1
D|-----------------------------------3---------------------------------------|
A|---------------------------------------------------------------------------|
E|---------------------------------------------------------------------------|

e|---------------------------------------------------------------------------|
B|-4----1--1-----------------------------------------------------------------|
G|---------------0--0--0--0--0--0--0--0--------------------------------------|     x2
D|---------------------------------------3-----------------------------------|
A|---------------------------------------------------------------------------|
E|---------------------------------------------------------------------------|

e|----------------------|
B|----------------------|
G|-----3----------------|   x2
D|-1-------3--3---1-----|
A|----------------------|
E|----------------------|



[Verse]

e|---------------|----------------|------------|------------------|--------------|
B|---------------|----------------|------------|------------------|--------------|
G|--0----0-------|--1---0---0-----|--0----0----|---1----0---------|-----0--0--0--|    x1
D|------------1--|--------------1-|----------1-|-----------1---0--|---1----------|
A|---------------|----------------|------------|------------------|--------------|
E|---------------|----------------|------------|------------------|--------------|

e|---------------|-------------|----------------|-------------------------------|
B|---------------|-------------|----------------|-------------------------------|
G|-1---0---------|---0---0-----|-----0---0------|---0---0-----------------------|    x2
D|--------1--1---|----------3--|------------3---|----------3--------------------|
A|---------------|-------------|----------------|-------------------------------|
E|---------------|-------------|----------------|-------------------------------|

            
Submit corrections


        Sad lessons Hard to play? Try these video lessons and learn fast Sad lessons
        
↑ Back to top | Tablatures and chords for acoustic guitar and electric guitar, ukulele, drums are parodies/interpretations of the original songs. You may use it for private study, scholarship, research or language learning purposes only