» » »

Within The Ruins - Beautiful Agony Tabs

Artists:  A B C D E F G H I J K L M N O P Q R S T U V W X Y Z # 

Beautiful Agony Tabs

(ver. 1) Click to play this song!
Within The Ruins
 Rating:
4.1/5 (17 votes)

 Beautiful Agony  lessons Tabs too difficult? Try these video lessons and learn fast
 
                
D|-10p6---6------------------------6-5h6p5-13-13-12-13-------------------------------------------------|
A|------8---8---8----------------8------------------------------------11-10-11-10-11-8-10-8-10-10------|
F|------------7---7---7--------7------------------------14-12-12/14--------------------------------7-7-|
C|------------------8---8----8-------------------------------------------------------------------------|
G|------------------------10---------------------------------------------------------------------------|
C|-----------------------------------------------------------------------------------------------------|

D|-13-10----10----------------------------------------   |------------------|   13-12-13-12-17-15-13-12--|
A|-------13----13-10-13-10----10----10----------------   |------------------|   -------------------------|
F|-------------------------12----12----10-12-10----10-   |14-10-12-10----10-|   -------------------------|
C|----------------------------------------------12----   |------------12----|X6 -------------------------|
G|----------------------------------------------------   |------------------|   -------------------------|
C|----------------------------------------------------   |------------------|   -------------------------|
            
Submit corrections


        Beautiful Agony  lessons Hard to play? Try these video lessons and learn fast Beautiful Agony  lessons
        
↑ Back to top | Tablatures and chords for acoustic guitar and electric guitar, ukulele, drums are parodies/interpretations of the original songs. You may use it for private study, scholarship, research or language learning purposes only