Home » W » Wipers »

Wipers - Up Front Tabs

Artists:  A B C D E F G H I J K L M N O P Q R S T U V W X Y Z # 

Up Front Tabs

(ver. 2) Click to play this song!
Wipers
 Rating:
3/5 (24 votes)
                00:00-00:26 (bass intro)

guitar starts

Verse 1 :

e|----------------------------------------------------------------------------|
B|------------5-------5-------5-------5-------5-------5-------5-------5-------|
G|------------5-------5-------5-------5-------5-------5-------5-------5-------|
D|--------7777-7777777-7777777-7777777-7777777-7777777-7777777-7777777-777----|
A|--------7777-7777777-7777777-7777777-7777777-7777777-7777777-7777777-777----|
E|----------------------------------------------------------------------------|


Chorus :

e|----------------------------------------------------------------|
B|----------------------------------------------------------------|
G|---------------5---------------------5-----------------5555-7~~~|
D|3333-5555-7777-5-777--3333-5555-7777-5-7777--3333-5555-5555-7~~~|
A|3333-5555-7777---777--3333-5555-7777---7777--3333-5555-3333-5~~~|
E|1111-3333-5555---555--1111-3333-5555---5555--1111-3333----------|

Interlude :

e|--------------|
B|8-666-6-666---|
G|5-555-7-555---|   -  repeat 10 times
D|--------------|
A|--------------|
E|--------------|

Verse 2 :

e|----------------------------------------------------------------------------|
B|------------5-------5-------5-------5-------5-------5-------5-------5-------|
G|------------5-------5-------5-------5-------5-------5-------5-------5-------|
D|--------7777-7777777-7777777-7777777-7777777-7777777-7777777-7777777-777----|
A|--------7777-7777777-7777777-7777777-7777777-7777777-7777777-7777777-777----|
E|----------------------------------------------------------------------------|

Chorus :

e|----------------------------------------------------------------|
B|----------------------------------------------------------------|
G|---------------5---------------------5-----------------5555-7~~~|
D|3333-5555-7777-5-777--3333-5555-7777-5-7777--3333-5555-5555-7~~~|
A|3333-5555-7777---777--3333-5555-7777---7777--3333-5555-3333-5~~~|
E|1111-3333-5555---555--1111-3333-5555---5555--1111-3333----------|

Interlude :

e|15-13-13-13---13-13-13-13---|                     e|15-13-13-13---15-13-13-13---15-15-13 13-13-13-|
B|13-13-13-13---15-13-13-13---|   -  repeat 9 times B|13-13-13-13---13-13-13-13---13-13-13-13-13-13-|
G|----------------------------|                     G|----------------------------------------------|
D|----------------------------|                     D|----------------------------------------------|
A|----------------------------|                     A|----------------------------------------------|
E|----------------------------|                     E|----------------------------------------------|

Solo :

e|---------555--555--555----------555--555--555-----------17---17---17---17---17---17---17---17--0--------|
B|---------555--555--555----------555--555--555-----------17---17---17---17---17---17---17---17--0--------|
G|-------7b---7b---7b----5s\----7b---7b---7b-----5s\---19b--19b--19b--19b--19b--19b--19b--19b----0--------|
D|-----------------------5s\---------------------5s\---------------------------------------------0------77|
A|-----------------------------------------------------------------------------------------------0------77|
E|-------------------------------------------------------------------------------------------------12\--55|

bass 1:47 - 2:10

Verse 3 :

e|----------------------------------------------------------------------------|
B|------------5-------5-------5-------5-------5-------5-------5-------5-------|
G|------------5-------5-------5-------5-------5-------5-------5-------5-------|
D|--------7777-7777777-7777777-7777777-7777777-7777777-7777777-7777777-777----|
A|--------7777-7777777-7777777-7777777-7777777-7777777-7777777-7777777-777----|
E|-12s\-----------------------------------------------------------------------|


Chorus :

e|----------------------------------------------------------------|
B|----------------------------------------------------------------|
G|---------------5---------------------5-----------------5555-7~~~|
D|3333-5555-7777-5-777--3333-5555-7777-5-7777--3333-5555-5555-7~~~|
A|3333-5555-7777---777--3333-5555-7777---7777--3333-5555-3333-5~~~|
E|1111-3333-5555---555--1111-3333-5555---5555--1111-3333----------|

Interlude :

e|--------------|
B|8-666-6-666---|
G|5-555-7-555---|   -  repeat 13 times
D|--------------|
A|--------------|
E|--------------|

Outro :

e|-------------------------------------------------|
B|-------------------------------------------------|
G|777777-555555-777777-555555-777777-555555-7777~~~|
D|777777-555555-777777-555555-777777-555555-7777~~~|
A|555555-333333-555555-333333-555555-333333-5555~~~|
E|-------------------------------------------------|
            
Submit corrections

↑ Back to top | Tablatures and chords for acoustic guitar and electric guitar, ukulele, drums are parodies/interpretations of the original songs. You may use it for private study, scholarship, research or language learning purposes only