Home » W » Wipers »

Wipers - Romeo Tabs

Artists:  A B C D E F G H I J K L M N O P Q R S T U V W X Y Z # 

Romeo Tabs

(ver. 2) Click to play this song!
Wipers
 Rating:
4/5 (24 votes)
                
Pretty sure all the lead parts are played with a slide.

Main rhythm riff that plays throughtout the whole song:

e|------------------------------------------|
B|------------------------------------------|
G|------------------------------------------|
D|------------------------------------------|
A|---2--2--2--2-2--2---2--2--2--2--2-2-0h2--|
E|---0--0--0--3p0--0---0--0--0--0--3p0-0-0--|

There are several lead bits. Here are the main ones.
Pretty sure all the lead parts are played with a slide.
Most of the chords on the end of the riffs are played with a lot of vibrato.

First lead bit:

                       vibrato
e|-----------------------------------------|
B|--12--12------------9~~~-----------------|
G|--12--12--repeat----9~~~-----------------|
D|--12--12------------9~~~-----------------|
A|-----------------------------------------|
E|-----------------------------------------| x2

Main chorus lead part:

e|--------------------------------------------------|
B|--12---12/14--14---14~-------12---12\9--9---9~----|
G|--12---12/14--14---14~-------12---12\9--9---9~----|
D|--12---12/14--14---14~-------12---12\9--9---9~----|
A|--------------------------------------------------|
E|--------------------------------------------------| x2

e|--------------------------------------------------|
B|--16---16/17--17---17~-------12---12/14--14---14~-|
G|--16---16/17--17---17~-------12---12/14--14---14~-|
D|--16---16/17--17---17~-------12---12/14--14---14~-|
A|--------------------------------------------------|
E|--------------------------------------------------|

e|--------------------------------------------------|
B|--14\9-----------------/21------------------------|
G|--14\9-----------------/21------------------------|
D|--14\9-----------------/21------------------------|
A|--------------------------------------------------|
E|--------------------------------------------------|            
Submit corrections

↑ Back to top | Tablatures and chords for acoustic guitar and electric guitar, ukulele, drums are parodies/interpretations of the original songs. You may use it for private study, scholarship, research or language learning purposes only