Home » W » Wipers »

Wipers - Mystery Tabs

Artists:  A B C D E F G H I J K L M N O P Q R S T U V W X Y Z # 

Mystery Tabs

(ver. 2) Click to play this song!
Wipers
 Rating:
4.3/5 (21 vote)
                [Intro]

    A                                                A  B          
e|--5-5-----5-5-----5-5-----5-5-----5-5-----5-5------5--7-7--7-7--|
B|--5-5-5-5-5-5-5-5-5-5-5-5-5-5-5-5-5-5-5-5-5-5-5-5--5--7-7--7-7--|
G|--6-6-6-6-6-6-6-6-6-6-6-6-6-6-6-6-6-6-6-6-6-6-6-6--6--8-8--8-8--|
D|---------------------------------------------------7--9-9--9-9--|
A|---------------------------------------------------7--9-9--9-9--|
E|---------------------------------------------------5--7-7--7-7--|

    A                                                A  B                       
e|--5-5-5-5-5-5-5-5-5-5-5-5-5-5-5-5-5-5-5-5-5-5-5-5--5--7-7--7--7-7-7-7--7--7--|
B|--5-5-5-5-5-5-5-5-5-5-5-5-5-5-5-5-5-5-5-5-5-5-5-5--5--7-7--7--7-7-7-7--7--7--|
G|--6-6-6-6-6-6-6-6-6-6-6-6-6-6-6-6-6-6-6-6-6-6-6-6--6--8-8--8--8-8-8-8--8--8--|
D|---------------------------------------------------7--9-9--9--9-9-9-9--9--9--|
A|---------------------------------------------------7--9-9--9--9-9-9-9--9--9--|
E|---------------------------------------------------5--7-7--7--7-7-7-7--7--7--|

    E5              F#5             G#5             A5      B5                  
e|-----------------------------------------------------------------------------|
B|-----------------------------------------------------------------------------|
G|-----------------------------------------------------------------------------|
D|--2-2-2-2-2-2-2-2-4-4-4-4-4-4-4-4-6-6-6-6-6-6-6-6-7-7-7-7-9-9-9-9------------| (2X)
A|--2-2-2-2-2-2-2-2-4-4-4-4-4-4-4-4-6-6-6-6-6-6-6-6-7-7-7-7-9-9-9-9------------|
E|--0-0-0-0-0-0-0-0-2-2-2-2-2-2-2-2-4-4-4-4-4-4-4-4-5-5-5-5-7-7-7-7------------|

    A                                                A  B                       
e|--5-5-5-5-5-5-5-5-5-5-5-5-5-5-5-5-5-5-5-5-5-5-5-5--5--7--7--7--7-7--7--7--|
B|--5-5-5-5-5-5-5-5-5-5-5-5-5-5-5-5-5-5-5-5-5-5-5-5--5--7--7--7--7-7--7--7--|
G|--6-6-6-6-6-6-6-6-6-6-6-6-6-6-6-6-6-6-6-6-6-6-6-6--6--8--8--8--8-8--8--8--|
D|---------------------------------------------------7--9--9--9--9-9--9--9--|
A|---------------------------------------------------7--9--9--9--9-9--9--9--|
E|---------------------------------------------------5--7--7--7--7-7--7--7--|

    E5                              F#5                                                           
e|-------------------------------------------------------------------|
B|-------------------------------------------------------------------|
G|-------------------------------------------------------------------|
D|--2-2-2-2-2-2-2-2-2-2-2-2-2-2-2-2-4-4-4-4-4-4-4-4-4-4-4-4-4-4-4-4--| (2X)
A|--2-2-2-2-2-2-2-2-2-2-2-2-2-2-2-2-4-4-4-4-4-4-4-4-4-4-4-4-4-4-4-4--|
E|--0-0-0-0-0-0-0-0-0-0-0-0-0-0-0-0-2-2-2-2-2-2-2-2-2-2-2-2-2-2-2-2--|

    A     B         A B               F#m            B               
e|--5--5--7--7--7-7-5-7--7-7--7-7--5--2--2--2-2-2-2--7-7-7-7-7-7-7--|
B|--5--5--7--7--7-7-5-7--7-7--7-7--5--2--2--2-2-2-2--7-7-7-7-7-7-7--|
G|--6--6--8--8--8-8-6-8--8-8--8-8--6--2--2--2-2-2-2--8-8-8-8-8-8-8--|
D|--7--7--9--9--9-9-7-9--9-9--9-9--7--4--4--4-4-4-4--9-9-9-9-9-9-9--|
A|--7--7--9--9--9-9-7-9--9-9--9-9--7--4--4--4-4-4-4--9-9-9-9-9-9-9--|
E|--5--5--7--7--7-7-5-7--7-7--7-7--5--2--2--2-2-2-2--7-7-7-7-7-7-7--|

    E5              F#5             G#5             A5      B5                  
e|-----------------------------------------------------------------------------|
B|-----------------------------------------------------------------------------|
G|-----------------------------------------------------------------------------|
D|--2-2-2-2-2-2-2-2-4-4-4-4-4-4-4-4-6-6-6-6-6-6-6-6-7-7-7-7-9-9-9-9------------| (2X)
A|--2-2-2-2-2-2-2-2-4-4-4-4-4-4-4-4-6-6-6-6-6-6-6-6-7-7-7-7-9-9-9-9------------|
E|--0-0-0-0-0-0-0-0-2-2-2-2-2-2-2-2-4-4-4-4-4-4-4-4-5-5-5-5-7-7-7-7------------|

    A                F#m              G#m              A     B   A B  A B        
e|--5-------------5--2-------------2--4-------------4--5--5--7-7-5-7--5-7--7-7--|
B|--5-------------5--2-------------2--4-------------4--5--5--7-7-5-7--5-7--7-7--|
G|--6-------------6--2-------------2--4-------------4--6--6--8-8-6-8--6-8--8-8--|
D|--7-------------7--4-------------4--6-------------6--7--7--9-9-7-9--7-9--9-9--|
A|--7-------------7--4-------------4--6-------------6--7--7--9-9-7-9--7-9--9-9--|
E|--5-------------5--2-------------2--4-------------4--5--5--7-7-5-7--5-7--7-7--|

    E5                              F#5                                                           
e|-------------------------------------------------------------------|
B|-------------------------------------------------------------------|
G|-------------------------------------------------------------------|
D|--2-2-2-2-2-2-2-2-2-2-2-2-2-2-2-2-4-4-4-4-4-4-4-4-4-4-4-4-4-4-4-4--| (2X)
A|--2-2-2-2-2-2-2-2-2-2-2-2-2-2-2-2-4-4-4-4-4-4-4-4-4-4-4-4-4-4-4-4--|
E|--0-0-0-0-0-0-0-0-0-0-0-0-0-0-0-0-2-2-2-2-2-2-2-2-2-2-2-2-2-2-2-2--|

    A     B         A B               F#m         B         A      
e|--5--5--7--7--7-7-5-7--7-7--7-7--5--2--2--2-2-2-7-7-7-7-7-5-5-5--|
B|--5--5--7--7--7-7-5-7--7-7--7-7--5--2--2--2-2-2-7-7-7-7-7-5-5-5--|
G|--6--6--8--8--8-8-6-8--8-8--8-8--6--2--2--2-2-2-8-8-8-8-8-6-6-6--|
D|--7--7--9--9--9-9-7-9--9-9--9-9--7--4--4--4-4-4-9-9-9-9-9-7-7-7--|
A|--7--7--9--9--9-9-7-9--9-9--9-9--7--4--4--4-4-4-9-9-9-9-9-7-7-7--|
E|--5--5--7--7--7-7-5-7--7-7--7-7--5--2--2--2-2-2-7-7-7-7-7-5-5-5--|

    F#m         B         A
e|--2--2--2-2-2-7-7-7-7-7-5-5-5--|
B|--2--2--2-2-2-7-7-7-7-7-5-5-5--|
G|--2--2--2-2-2-8-8-8-8-8-6-6-6--|
D|--4--4--4-4-4-9-9-9-9-9-7-7-7--| (2X)
A|--4--4--4-4-4-9-9-9-9-9-7-7-7--|
E|--2--2--2-2-2-7-7-7-7-7-5-5-5--|

    E5
e|--0--|
B|--0--|
G|--X--|
D|--2--|
A|--2--|
E|--0--|            
Submit corrections

↑ Back to top | Tablatures and chords for acoustic guitar and electric guitar, ukulele, drums are parodies/interpretations of the original songs. You may use it for private study, scholarship, research or language learning purposes only