Home » W » Wipers »

Wipers - Alien Boy Tabs

Artists:  A B C D E F G H I J K L M N O P Q R S T U V W X Y Z # 

Alien Boy Tabs

(ver. 2) Click to play this song!
Wipers
 Rating:
4.3/5 (18 votes)
                _______________________________________________________________________________
INTRO
_______________________________________________________________________________

Bass plays for four bars, then the guitar and drums enter on the
fifth bar.

Guitar one

                 x8    
e|-----------------||-----------------||
B|-----------------||-----------------||
G|-----------------||-----------------||
D|-----------------||-----------------||
A|-----------------||-5-5-5-5-5-5-5-5-||
E|-0-0-0-0-6-6-6-6-||-0-0-0-0-6-6-6-6-||

Guitar two


e|-0-0-0-0--0-0-0-||
B|-0-0-0-0--0-0-0-||
G|-7-7-7-7--7-7-7-||
D|-x-x-x-x--x-x-x-||
A|-5-5-5-5--5-5-5-||
E|----------------||
  (let ring)

                                                                     x2                   
e|-------------------|-------------------|----------------------------||
B|-------------------|-------------------|----------------------------||
G|-------------------|-------------------|--------------------7-7-7-7-||
D|-------------------|-------------------|--------------------8-8-8-8-||
A|-------7---8---5---|-------7---8---5---|-------7---8---5----8-8-8-8-||
E|-0---0---0---0---0-|-0---0---0---0---0-|-0---0---0---0---0--6-6-6-6-||
   pm  pm  pm  pm  pm  pm  pm  pm  pm  pm  pm  pm  pm  pm  pm


                           x3
B|---------------------------||
G|-------------------7-7-7-7-||
D|-------------------8-8-8-8-||
A|-------5---7---5---8-8-8-8-||
E|-0---0---0---0---0-6-6-6-6-||
   pm  pm  pm  pm  pm
_______________________________________________________________________________
VERSE
_______________________________________________________________________________



                   x6
e|-------------------|-0-0-0-0-0-0-0-0-|-3-3-3-3-3-3-3-3-|-0------||
B|-------------------|-2-2-2-2-2-2-2-2-|-3-3-3-3-3-3-3-3-|-0------||
G|-------------------|-2-2-2-2-2-2-2-2-|-0-0-0-0-0-0-0-0-|-0------||
D|-------2---3---0---|-2-2-2-2-2-2-2-2-|-0-0-0-0-0-0-0-0-|-2------||
A|-------2---3---0---|-0-0-0-0-0-0-0-0-|-x-x-x-x-x-x-x-x-|-2------||
E|-0---0---0---0---0-|-----------------|-3-3-3-3-3-3-3-3-|-0------||
   pm  pm  pm  pm  pm                                    (on the recording
                                                          this chord rings to
                                                          fade)

Go and grab your gun

Got him on the run

'Cause he's an alien

They hurt what they don't understand

                   x6
e|-------------------|-0-0-0-0-0-0-0-0-|-3-3-3-3-3-3-3-3-|-0------||
B|-------------------|-2-2-2-2-2-2-2-2-|-3-3-3-3-3-3-3-3-|-0------||
G|-------------------|-2-2-2-2-2-2-2-2-|-0-0-0-0-0-0-0-0-|-0------||
D|-------2---3---0---|-2-2-2-2-2-2-2-2-|-0-0-0-0-0-0-0-0-|-2------||
A|-------2---3---0---|-0-0-0-0-0-0-0-0-|-x-x-x-x-x-x-x-x-|-2------||
E|-0---0---0---0---0-|-----------------|-3-3-3-3-3-3-3-3-|-0------||
   pm  pm  pm  pm  pm


So you had to turn away

There's no other way

You're an alien

They hurt what they don't understand

                                                                     x2                   
e|-------------------|-------------------|----------------------------||
B|-------------------|-------------------|----------------------------||
G|-------------------|-------------------|--------------------7-7-7-7-||
D|-------------------|-------------------|--------------------8-8-8-8-||
A|-------7---8---5---|-------7---8---5---|-------7---8---5----8-8-8-8-||
E|-0---0---0---0---0-|-0---0---0---0---0-|-0---0---0---0---0--6-6-6-6-||
   pm  pm  pm  pm  pm   pm  pm  pm  pm  pm  pm  pm  pm  pm  pm


                           x3
B|---------------------------||
G|-------------------7-7-7-7-||
D|-------------------8-8-8-8-||
A|-------5---7---5---8-8-8-8-||
E|-0---0---0---0---0-6-6-6-6-||
   pm  pm  pm  pm  pm

                   x3
e|-------------------||
B|-------------------||
G|-------------------||
D|-------2---3---0---||
A|-------2---3---0---||
E|-0---0---0---0---0-||
   pm  pm  pm  pm  pm

Guitar Fill

e|-------|----||
B|-------|-00-||
G|-2b3r2-|-00-||
D|-------|----||
A|-------|----||
E|-------|----||

_______________________________________________________________________________
BRIDGE/VERSE
_______________________________________________________________________________

e|------------||
B|------------||
G|------------||
D|------------||
A|-7---8---5--||
E|------------||

Go and grab your gun

Got him on the run

'Cause he's an alien

Got no rights...

No rights at all

Just ease off the skunk - (no idea what the actual lyric is)

                                        x2
e|-------------------|---------------0--0-||
B|-------------------|---------------0--0-||
G|-------------------|---------------0--0-||
D|---2-------3---0---|---2-------3--------||
A|---2-------3---0---|---2-------3--------||
E|-0---0---0---0---0-|-0---0---0---0------||
   pm  pm  pm  pm  pm  pm  pm  pm  pm


So you had to turn away, there's no other way

'Cause you're an alien, they hurt what they don't understand

                   x5
e|-------------------|-------------------|-0-0-0-0-0-0-0-0-|-3-3-3-3-3-3-3-3-|
B|-------------------|-------------------|-2-2-2-2-2-2-2-2-|-3-3-3-3-3-3-3-3-|
G|-------------------|-------------------|-2-2-2-2-2-2-2-2-|-0-0-0-0-0-0-0-0-|
D|---2-------3---0---|---2-------3---0---|-2-2-2-2-2-2-2-2-|-0-0-0-0-0-0-0-0-|
A|---2-------3---0---|---2-------3---0---|-0-0-0-0-0-0-0-0-|-x-x-x-x-x-x-x-x-|
E|-0---0---0---0---0-|-0---0---0---0---0-|-----------------|-3-3-3-3-3-3-3-3-|
   pm  pm  pm  pm  pm - (ease off palm mute)
 
|-0----------||
|-0----------||
|-0----------||
|-2----------||
|-2----------||
|-0----------||
  (let ring into feedback)
_______________________________________________________________________________
OUTRO
_______________________________________________________________________________

Essentially the same as the intro but the open notes are omitted from
guitar two.

Guitar one

e|-----------------||
B|-----------------||
G|-----------------||
D|-----------------||
A|-5-5-5-5-5-5-5-5-||
E|-0-0-0-0-6-6-6-6-||

Guitar two

e|----------------||
B|----------------||
G|-7-7-7-7--7-7-7-||
D|-x-x-x-x--x-x-x-||
A|-5-5-5-5--5-5-5-||
E|----------------||
            
Submit corrections

↑ Back to top | Tablatures and chords for acoustic guitar and electric guitar, ukulele, drums are parodies/interpretations of the original songs. You may use it for private study, scholarship, research or language learning purposes only