Home » W » Wintersun »

Wintersun - Beyond The Dark Sun Tabs

Artists:  A B C D E F G H I J K L M N O P Q R S T U V W X Y Z # 

Beyond The Dark Sun Tabs

(ver. 1) Click to play this song!
Wintersun


Tuning: Standard 


|----------------------------|------------------------------|
|----------------------------|------------------------------|
|-10---------------------9-7-|-9----------------------------|
|----------------------------|---5-5-5-5-5-5-5-5-5-5-5-5-5-5|
|----5-5-5-5-5-5-5-5-5-5-----|------------------------------|
|----------------------------|------------------------------|


|-----------------------------|------------------------------|
|-----------------------------|------------------------------|
|-12---------------------10-9-|-------------12-10-9----10-9--|
|----8-8-8-8-8-8-8-8-8-8------|-10-10-10-10------------------|
|-----------------------------|---------------------12-------|
|-----------------------------|------------------------------|


|----------------------------|------------------------------|
|----------------------------|------------------------------|
|-10---------------------9-7-|-9----------------------------|
|----------------------------|---5-5-5-5-5-5-5-5-5-5-5-5-5-5|
|----5-5-5-5-5-5-5-5-5-5-----|------------------------------|
|----------------------------|------------------------------|


|-----------------------------|------------------------------|
|-----------------------------|------------------------------|
|-12---------------------10-9-|-------------12-10-9----10-9--|
|----8-8-8-8-8-8-8-8-8-8------|-10-10-10-10------------------|
|-----------------------------|---------------------12-------|
|-----------------------------|------------------------------|

|----------------------------|------------------------------|
|----------------------------|------------------------------|
|-10---------------------9-7-|-9----------------------------|
|----------------------------|---5-5-5-5-5-5-5-5-5-5-5-5-5-5|
|----5-5-5-5-5-5-5-5-5-5-----|------------------------------|
|----------------------------|------------------------------|


|-----------------------------|------------------------------|
|-----------------------------|------------------------------|
|-12---------------------10-9-|-------------12-10-9----10-9--|
|----8-8-8-8-8-8-8-8-8-8------|-10-10-10-10------------------|
|-----------------------------|---------------------12-------|
|-----------------------------|------------------------------|


|-------------------10-15-10----------------15-|-17-13----------------15-18-15----------------15-|
|----------------10----------11----------15----|-------15----------15----------15----------15----|
|-------------10----------------12----14-------|----------14----14----------------15----14-------|
|-12--------7----------------------12----------|-------------15----------------------17----------|
|----8----8------------------------------------|-------------------------------------------------|
|------10--------------------------------------|-------------------------------------------------|


|-17-13----------------13-15-10----------------15-|-17-13----------------------|
|-------15----------15----------11----------15----|-------15-------------------|
|----------14----14----------------12----14-------|----------14----------14----|
|-------------15----------------------12----------|-------------12----12----12-|
|-------------------------------------------------|----------------13----------|
|-------------------------------------------------|----------------------------|


|----------------------------|------------------------------|
|----------------------------|------------------------------|
|-10---------------------9-7-|-9----------------------------|
|----------------------------|---5-5-5-5-5-5-5-5-5-5-5-5-5-5|
|----5-5-5-5-5-5-5-5-5-5-----|------------------------------|
|----------------------------|------------------------------|


|-----------------------------|------------------------------|
|-----------------------------|------------------------------|
|-12---------------------10-9-|-------------12-10-9----10-9--|
|----8-8-8-8-8-8-8-8-8-8------|-10-10-10-10------------------|
|-----------------------------|---------------------12-------|
|-----------------------------|------------------------------|



|----------------------------|------------------------------|
|----------------------------|------------------------------|
|-10---------------------9-7-|-9----------------------------|
|----------------------------|---5-5-5-5-5-5-5-5-5-5-5-5-5-5|
|----5-5-5-5-5-5-5-5-5-5-----|------------------------------|
|----------------------------|------------------------------|


|-----------------------------|------------------------------|
|-----------------------------|------------------------------|
|-12---------------------10-9-|-------------12-10-9----10-9--|
|----8-8-8-8-8-8-8-8-8-8------|-10-10-10-10------------------|
|-----------------------------|---------------------12-------|
|-----------------------------|------------------------------|


|--------|------|---|-------|----|---------|----|-------|---|----|---|
|--------|------|---|-10-11-|-10-|-10----8-|-10-|-10----|---|----|-8-|
|-7----7-|-10-9-|-7-|-------|----|----10---|----|----10-|-9-|-10-|---|
|---10---|------|---|-------|----|---------|----|-------|---|----|---|
|--------|------|---|-------|----|---------|----|-------|---|----|---|
|--------|------|---|-------|----|---------|----|-------|---|----|---|


|------|---|------|---|
|------|---|------|---|
|-10-9-|-7-|-10-9-|-7-|
|------|---|------|---|
|------|---|------|---|
|------|---|------|---|


|----------------------------|------------------------------|
|----------------------------|------------------------------|
|-10---------------------9-7-|-9-------------10-9-10-9-7----|
|----8-8-8-8-8-8-8-8-8-8-----|---7-7-7-7-7-7-------------10-|
|----------------------------|------------------------------|
|----------------------------|------------------------------|


|-----------|-------|
|------8----|-------|
|-10-9---10-|-9-7-9-|
|-----------|-------|
|-----------|-------|
|-----------|-------|


|----------------------------|------------------------------|
|----------------------------|------------------------------|
|-10---------------------9-7-|-9-------------10-9-10-9-7----|
|----8-8-8-8-8-8-8-8-8-8-----|---7-7-7-7-7-7-------------10-|
|----------------------------|------------------------------|
|----------------------------|------------------------------|


|-----------|-------|--------|
|------8----|-------|------8-|
|-10-9---10-|-9-7-9-|-9-10---|
|-----------|-------|--------|
|-----------|-------|--------|
|-----------|-------|--------|


|-----------------------------|--------------------------------|
|-10--------------------------|--------------------------------|
|------------------------10-9-|-10-----------------------------|
|-----------------------------|----5-5-5-5-5-5-5-5-5-5-5-5-5-5-|
|----5-5-5-5-5-5-5-5-5-5------|--------------------------------|
|-----------------------------|--------------------------------|


|---------------------------|---------------------------------|
|---------------------------|---------------------------------|
|---------------------------|---------------------------------|
|-7---------------------8-7-|-8-------------------------------|
|---5-5-5-5-5-5-5-5-5-5-----|---------------------------------|
|---------------------------|---3-3-3-3-3-3-3-3-3-3-3-3-3-3-3-|


|-----------------------------|-----------------------------|
|-----------------------------|-----------------------------|
|-12---------------------10-9-|-------------12-10-9----10-9-|
|----8-8-8-8-8-8-8-8-8-8------|-10-10-10-10-----------------|
|-----------------------------|---------------------12------|
|-----------------------------|-----------------------------|


|-----------------------------|--------------------------------|
|-10--------------------------|--------------------------------|
|------------------------10-9-|-10-----------------------------|
|-----------------------------|----5-5-5-5-5-5-5-5-5-5-5-5-5-5-|
|----5-5-5-5-5-5-5-5-5-5------|--------------------------------|
|-----------------------------|--------------------------------|


|-----------------------------|-----------------------------|
|-----------------------------|-----------------------------|
|-12---------------------10-9-|-------------12-10-9----10-9-|
|----8-8-8-8-8-8-8-8-8-8------|-10-10-10-10-----------------|
|-----------------------------|---------------------12------|
|-----------------------------|-----------------------------|


|----------------------------|------------------------------|
|----------------------------|------------------------------|
|-10---------------------9-7-|-9-------------10-9-10-9-7----|
|----8-8-8-8-8-8-8-8-8-8-----|---7-7-7-7-7-7-------------10-|
|----------------------------|------------------------------|
|----------------------------|------------------------------|


|-----------|---|---|--------------|------------|-----------|-----------|
|------8----|---|---|--------------|------------|-----------|-----------|
|-10-9---10-|-9-|-9-|--------------|------------|-9-9-9-9-9-|-9-9-9-7-9-|
|-----------|---|---|-10-10-10-9-7-|-9-9-9-7----|-----------|-----------|
|-----------|---|---|--------------|---------10-|-----------|-----------|
|-----------|---|---|--------------|------------|-----------|-----------|


|--------------|-------------------|-----------|-------------|
|--------------|-------------------|-----------|-------------|
|-10-10-10-9-7-|-9-9-9-12-10-12-10-|-9-9-9-9-9-|-9-9-9-10-12-|
|--------------|-------------------|-----------|-------------|
|--------------|-------------------|-----------|-------------|
|--------------|-------------------|-----------|-------------|


|--------------|------------|-----------|-----------|
|--------------|------------|-----------|-----------|
|-10-10-10-9-7-|-9-9-9-7----|-9-9-9-9-9-|-9-9-9-7-9-|
|--------------|---------10-|-----------|-----------|
|--------------|------------|-----------|-----------|
|--------------|------------|-----------|-----------|


|--------------|-------------------|-----------|-------------|
|--------------|-------------------|-----------|-------------|
|-10-10-10-9-7-|-9-9-9-12-10-12-10-|-9-9-9-9-9-|-9-9-9-10-12-|
|--------------|-------------------|-----------|-------------|
|--------------|-------------------|-----------|-------------|
|--------------|-------------------|-----------|-------------|


|----|----|----|----|----|-------|----|----|----|----------|----|----|
|----|----|-10-|-10-|-10-|-10-13-|-13-|-13-|----|----------|-10-|-10-|
|-10-|-12-|----|----|----|-------|----|----|-12-|-12-10-12-|----|----|
|----|----|----|----|----|-------|----|----|----|----------|----|----|
|----|----|----|----|----|-------|----|----|----|----------|----|----|
|----|----|----|----|----|-------|----|----|----|----------|----|----|


|-------------|------------|-------------|---------|------------|-----------|---|-------|
|-10-10-------|------------|-10-10-------|---------|------------|-----------|---|-------|
|-------12-10-|-12-12-10-9-|-------12-10-|-9-10-12-|-10-10-9----|-9-9-------|-9-|-10-12-|
|-------------|------------|-------------|---------|---------12-|-----12-10-|---|-------|
|-------------|------------|-------------|---------|------------|-----------|---|-------|
|-------------|------------|-------------|---------|------------|-----------|---|-------|


|-------------|------------|------------|---------|------------|-----------|----|----|
|-10-10-------|------------|------------|---------|------------|-----------|----|----|
|-------12-10-|-12-12-10-9-|-12-12-10-9-|-------9-|-------9-10-|-9-9-------|----|----|
|-------------|------------|------------|-12-12---|-12-12------|-----12-10-|-12-|-12-|
|-------------|------------|------------|---------|------------|-----------|----|----|
|-------------|------------|------------|---------|------------|-----------|----|----|



I think there are mistakes in, but who is perfect? Please tell me if you should
find them ;-) Have Fun with this tab. 
            
Submit corrections

↑ Back to top | Tablatures and chords for acoustic guitar and electric guitar, ukulele, drums are parodies/interpretations of the original songs. You may use it for private study, scholarship, research or language learning purposes only