» » »

Wings - Medicine Jar Bass

Artists:  A B C D E F G H I J K L M N O P Q R S T U V W X Y Z # 

Medicine Jar Bass

(ver. 2) Click to play this song!
Wings
 Rating:
4.4/5 (5 votes)

 Medicine Jar lessons Tabs too difficult? Try these video lessons and learn fast
 
                [Intro]
G|---------------------------------|---------------------------------|
D|---------------------------------|---------------------------------|
A|---------------------------------|---------------------------------|
E|---------------------------------|5-------\------------------------|

G|---------------------------------|---------------------------------|
D|---------------------------------|---------------------------------|
A|---------------------------------|---------------------------------|
E|5-------------5-0-------3--------|5---5---------5-0-------3--------|

G|---------------------------------|---------------------------------|
D|---------------------------------|---------------------------------|
A|---------------------------------|---------------------------------|
E|5-------------5-0-------3--------|5---5---------5-0-------3--------|

[Verse 1]
G|---------------------------------|---------------------------------|
D|---------------------------------|---------------------------------|
A|---------------------------------|---------------------------------|
E|5-------------5-0-------3--------|5---5---------5-0-------3--------|

G|---------------------------------|---------------------------------|
D|---------------------------------|---------------------------------|
A|---------------------------------|------------------------3------0-|
E|5-------------5-0-------3--------|5---5-------5---5----------------|

G|---------------------------------|---------------------------------|
D|---------------------------------|---------------------------------|
A|5-----------5------------------0-|5-----------5---5---/---7--------|
E|---------------------------------|----------------------------8----|

G|---------------------------------|---------------------------------|
D|---------------------------------|---------------------------------|
A|---------------------------------|---------------------------------|
E|5-------------5-0-------3--------|5---5---------5-0-------3------0-|

[Chorus]
G|---------------------------------|---------------------------------|
D|---------------------------------|---------------------------------|
A|------------------------3------4-|5-----------5-----------5---\----|
E|5-----------5--------------------|---------------------------------|

G|---------------------------------|---------------------------------|
D|---------------------------------|---------------------------------|
A|--------0-------2-------5------5-|7--------------------------------|
E|3--------------------------------|--------0-------3-------4--------|

G|---------------------------------|---------------------------------|
D|---------------------------------|---------------------------------|
A|---------------------------------|------------------------3------4-|
E|5-------------5-0-------3------0-|5---5-------5--------------------|

G|---------------------------------|---------------------------------|
D|---------------------------------|---------------------------------|
A|5-------------5-0-------3------0-|5-------------5-0-----3-5------0-|
E|---------------------------------|---------------------------------|

G|---------------------------------|---------------------------------|
D|---------------------------------|---------------------------------|
A|7-----------7-----------5--------|7-----7-5-----\-3-------2--------|
E|----------------7----------------|---------------------------------|

[Interlude]
G|---------------------------------|---------------------------------|
D|---------------------------------|---------------------------------|
A|---------------------------------|---------------------------------|
E|5-------------5-0-------3--------|5---5---------5-0-------3------0-|

G|---------------------------------|---------------------------------|
D|---------------------------------|---------------------------------|
A|---------------------------------|---------------------------------|
E|5---5---------5-0-------3---5----|5-----5-3-----3-0-------3--------|

[Verse 2]
G|---------------------------------|---------------------------------|
D|---------------------------------|---------------------------------|
A|---------------------------------|---------------------------------|
E|5-------------5-0-------3--------|5---5---------5-0-------3------0-|

G|---------------------------------|---------------------------------|
D|---------------------------------|---------------------------------|
A|---------------------------------|---------------------------------|
E|5-------------5-0-------3--------|5---5-------5--------------------|

G|---------------------------------|---------------------------------|
D|---------------------------------|---------------------------------|
A|5-----------5-----------0------3-|5-----------5-------/---7--------|
E|---------------------------------|----------------------------8----|

G|---------------------------------|---------------------------------|
D|---------------------------------|---------------------------------|
A|---------------------------------|---------------------------------|
E|5---5---------5-0-------3--------|5---5---------5-0-------3--------|

[Chorus]
G|---------------------------------|---------------------------------|
D|---------------------------------|---------------------------------|
A|------------------------3------4-|5-----------5-----------5---\----|
E|5-----------5--------------------|---------------------------------|

G|---------------------------------|---------------------------------|
D|---------------------------------|---------------------------------|
A|--------0-------2-------5------5-|7--------------------------------|
E|3--------------------------------|--------0-------3-------4--------|

G|---------------------------------|---------------------------------|
D|---------------------------------|---------------------------------|
A|---------------------------------|------------------------3------4-|
E|5-------------5-0-------3--------|5---5-------5--------------------|

G|---------------------------------|---------------------------------|
D|---------------------------------|---------------------------------|
A|5-------------5-0-------3--------|5-------5---------------0------5-|
E|---------------------------------|---------------------------------|

G|---------------------------------|---------------------------------|
D|---------------------------------|---------------------------------|
A|7-----------7-----------5--------|7-----7-5-----\-3-------2--------|
E|----------------7----------------|---------------------------------|

[Interlude]
G|---------------------------------|---------------------------------|
D|---------------------------------|---------------------------------|
A|---------------------------------|---------------------------------|
E|5-------------5-0-------3--------|5---5---------5-0-------3------0-|

G|---------------------------------|---------------------------------|
D|---------------------------------|---------------------------------|
A|---------------------------------|--------3-----3/7-------6--------|
E|5---5---------5-0-------3---5----|------5--------------------------|

[Chorus]
G|---------------------------------|---------------------------------|
D|---------------------------------|---------------------------------|
A|5-------------5-0-------3--------|5-------------5-0-----3-5------0-|
E|---------------------------------|---------------------------------|

G|----------------------------7-8--|9-------/*-----------------------| *slide
D|--------------------------9------|---------------------------------|slowly to
A|7-----------7--------------------|---------------------------------| 21th fret
E|----------------7----------------|---------------------------------|

[Interlude]
G|---------------------------------|---------------------------------|
D|---------------------------------|---------------------------------|
A|---------------------------------|---------------------------------|
E|5-------------5-0-------3--------|5---5---------5-0-------3------0-|

G|---------------------------------|---------------------------------|
D|---------------------------------|---------------------------------|
A|---------------------------------|---------------------------------|
E|5---5---------5-0-------3---5----|5-----5-3-----3-0-------3--------|

[Solo]
G|---------------------------------|---------------------------------|
D|---------------------------------|---------------------------------|
A|---------------------------------|---------------------------------|
E|5-----5-0-----3-5-----5-0------3-|5-----5-0-----3-5-----5-0--------|

G|---------------------------------|---------------------------------|
D|---------------------------------|---------------------------------|
A|---------------------------------|--------3-----/-7-------6--------|
E|5-----5-0-----3-5-----5-0------3-|5--------------------------------|

G|---------------------------------|---------------------------------|
D|---------------------------------|---------------------------------|
A|5-----5-0-----3-5-----5-0------3-|5-----5-0-----3-6-\---3-5------3-|
E|---------------------------------|---------------------------------|

G|---------------------------------|---------------------------------|
D|---------------------------------|---------------------------------|
A|---------------------------------|---------------------------------|
E|5-----5-0-----3-5-----5-0------3-|5-----5-3-----3-0-------3--------|

G|---------------------------------|---------------------------------|
D|---------------------------------|---------------------------------|
A|--------3-----3/7-------6--------|5-----5-3-----3-2-----2-0--------|
E|5-----5--------------------------|---------------------------------|

G|---------------------------------|----------------9---9---9---9----|
D|------------------------0--------|2----------/9--------------------|
A|--------0-----0-2-----2----------|---------------------------------|
E|3--------------------------------|---------------------------------|

G|---------------------------------|---------------------------------|
D|---------------------------------|---------------------------------|
A|---------------------------------|---------------------------------|
E|5-----5-0-----3-5-----5-0------3-|5-----5-0-----3-5-----5-0--------|

G|---------------------------------|---------------------------------|
D|---------------------------------|---------------------------------|
A|---------------------------------|---------------------------------|
E|5-----5-0-----3-5-----5-0------3-|5-----5-3-----3-0-------3--------|

[Verse 3]
G|---------------------------------|---------------------------------|
D|---------------------------------|---------------------------------|
A|---------------------------------|---------------------------------|
E|5-------------5-0-------3--------|5---5---------5-0-------3--------|

G|---------------------------------|---------------------------------|
D|---------------------------------|---------------------------------|
A|---------------------------------|---------------------------------|
E|5---5---------5-0-------3--------|5---5-------5---5----------------|

G|---------------------------------|---------------------------------|
D|---------------------------------|---------------------------------|
A|5-----------5------------------3-|5-----------5-------/---7--------|
E|------------------------5--------|----------------------------8----|

G|---------------------------------|---------------------------------|
D|---------------------------------|---------------------------------|
A|---------------------------------|---------------------------------|
E|5---5---------5-0-------3------0-|5---5---------5-0-------3------0-|

[Chorus]
G|---------------------------------|---------------------------------|
D|---------------------------------|---------------------------------|
A|------------------------3------4-|5-----------5---------5----------|
E|5-----------5--------------------|------------------------5--------|

G|---------------------------------|---------------------------------|
D|---------------------------------|---------------------------------|
A|--------0-------2-------5------5-|7--------------------------------|
E|3--------------------------------|--------0-------3-------4--------|

G|---------------------------------|---------------------------------|
D|---------------------------------|---------------------------------|
A|---------------------------------|------------------------3------4-|
E|5-------------5-0-------3------0-|5---5-------5--------------------|

G|---------------------------------|---------------------------------|
D|---------------------------------|---------------------------------|
A|5-------------5-0-------3------0-|5-------------5-0-----3-5-----0--|
E|---------------------------------|---------------------------------|

G|---------------------------------|---------------------------------|
D|---------------------------------|---------------------------------|
A|7-----------7-----------5---7----|--------5-------3-------2--------|
E|----------------7----------------|---------------------------------|

[Interlude]
G|---------------------------------|---------------------------------|
D|---------------------------------|---------------------------------|
A|---------------------------------|---------------------------------|
E|5---5---------5-0-------3------0-|5---5---------5-0-------3------0-|

G|---------------------------------|---------------------------------|
D|---------------------------------|---------------------------------|
A|---------------------------------|--------3-----3/7-------6--------|
E|5---5---------5-0-------3---5----|------5--------------------------|

[Chorus]
G|---------------------------------|---------------------------------|
D|---------------------------------|---------------------------------|
A|5-----5-5-----5-5-----5-5------5-|5-----5-5-----5-5-----5-5------5-|
E|---------------------------------|---------------------------------|

G|----------------------------7-8--|9-------/*-----------------------| *slide
D|--------------------------9------|---------------------------------|slowly to
A|---------------------------------|---------------------------------| 21th fret
E|0-------0-------0----------------|---------------------------------|

G|---------------------------------|---------------------------------|
D|---------------------------------|---------------------------------|
A|------------------------3---5----|--------5-----5-5-----5/7--------|
E|5-----5-0-----3-5----------------|------------------------------8--|

G|---------------------------------|---------------------------------|
D|---------------------------------|---------------------------------|
A|------------------------3---5----|--------5-----5-5-----5/7--------|
E|5-----5-0-----3-5---5------------|------------------------------8--|

G|---------------------------------|---------------------------------|
D|---------------------------------|---------------------------------|
A|------------------------3---5----|--------5-----5-5-----5/7--------|
E|5-----5-0-----3-5---5------------|------------------------------8--|

G|---------------------------------|---------------------------------|
D|---------------------------------|---------------------------------|
A|------------------------3-----4--|5-----5-5-----5-3-----3-2--------|
E|5-----5-0-----3-5-----5----------|---------------------------------|

[Outro Solo]
G|---------------------------------|---------------------------------|
D|---------------------------------|---------------------------------|
A|---------------------------------|5-----5-3-----3-2-----3-1--------|
E|5-----5-3-----3-1-----1-0--------|---------------------------------|

G|---------------------------------|---------------------------------|
D|---------------------------------|---------------------------------|
A|---------------------------------|5-----5-3-----3-2-----3-1--------|
E|5-----5-3-----3-1-----1-0--------|---------------------------------|

G|---------------------------------|---------------------------------|
D|---------------------------------|---------------------------------|
A|---------------------------------|5-----5-3-----3-2-----3-1--------|
E|5-----5-3-----3-1-----1-0--------|---------------------------------|

G|---------------------------------|---------------------------------|
D|---------------------------------|---------------------------------|
A|------------------------3--------|5-----5-0-----3-5-----5-0------3-|
E|5-----5-0-----3-5-----5----------|---------------------------------|

G|---------------------------------|---------------------------------|
D|---------------------------------|---------------------------------|
A|------------------------3--------|5-----5-0-----3-5-----5-0------3-|
E|5-----5-0-----3-5-----5----------|---------------------------------|

G|---------------------------------|---------------------------------|
D|---------------------------------|---------------------------------|
A|------------------------3--------|5-----5-0-----3-5-----5-0------3-|
E|5-----5-0-----3-5-----5----------|---------------------------------|

G|---------------------------------|---------------------------------|
D|---------------------------------|---------------------------------|
A|------------------------3--------|5-----5-0-----3-5-----5-0------3-|
E|5-----5-0-----3-5-----5----------|---------------------------------|

G|---------------------------------|---------------------------------|
D|---------------------------------|---------------------------------|
A|------------------------3--------|5-----5-0-----3-5-----5-0------3-|
E|5-----5-0-----3-5-----5----------|---------------------------------|

G|---------------------------------|---------------------------------|
D|---------------------------------|---------------------------------|
A|------------------------3--------|5-----5-0-----3-5-----5-0------3-|
E|5-----5-0-----3-5-----5----------|---------------------------------|

G|---------------------------------|---------------------------------|
D|---------------------------------|---------------------------------|
A|-------------------------------5-|5-----5-3-----3-2-----2-1--------|
E|5-----5-3-----3-1-----1-0--------|---------------------------------|

G|---------------------------------|---------------------------------|
D|---------------------------------|---------------------------------|
A|-------------------------------5-|5-----5-3-----3-2-----2-1--------|
E|5-----5-3-----3-1-----1-0--------|---------------------------------|

G|---------------------------------|---------------------------------|
D|---------------------------------|---------------------------------|
A|---------------------------------|---------------------------------|
E|--------3---5--------------------|---------------------------------|
            
Submit corrections


        Medicine Jar lessons Hard to play? Try these video lessons and learn fast Medicine Jar lessons
        
↑ Back to top | Tablatures and chords for acoustic guitar and electric guitar, ukulele, drums are parodies/interpretations of the original songs. You may use it for private study, scholarship, research or language learning purposes only