» » »

Wings - Jet Bass

Artists:  A B C D E F G H I J K L M N O P Q R S T U V W X Y Z # 

Jet Bass

(ver. 1) Click to play this song!
Wings
 Rating:
4/5 (4 votes)

 Jet lessons Tabs too difficult? Try these video lessons and learn fast
 
                -----------------------------------------------------------------------------
                             JET - The Wings
-----------------------------------------------------------------------------
Tuning: Standard

My band do a cover of this song, but being a rock/prog rock
band our version is a little heavier. Still, I think this is 
all right,it sounds good and gets a good reception live and I
didn't see a bass tab for this song so I thought I'd put my
bass version, hope it helps :)
 
Intro
G|---------------|---------------|-----------------| x2
D|---------------|---------------|-----------------|
A|-2~---2--4--5~-|-2~---2--4--5~-|-4~--------------|
E|---------------|---------------|-----------------|
                    Jet!
G|---------------|-|-----------------| x4
D|---------------|-|-----------------|
A|-2~---2--4--5~-|-|-----------------|
E|---------------|-|-5-5-5-5-5-5-5-5-|

Verse
G|--------------------|-or you could add this as the 4th bar-| x2
D|--------------------|----v-v-v-----------------------------|
A|-----------------x4-|-9--9---7-7---------------------------|
E|-5-5-5-5-5-5-5-5----|--------------------------------------|

Chorus
  and Jet..  Only lonely place..  Jet! Ooh..
G|----------|--------------------|--------------------|
D|----------|--------------------|--------------------|
A|-4~-------|-2~--2-4-5~---------|-----------------x4-|
E|----------|--------------------|-5-5-5-5-5-5-5-5----|

Verse
Chorus

Bridge
G|--------------------|---------------| x2
D|--------------------|---------------|
A|-----------------x3-|---------------|
E|-7-7-7-7-7-7-7-7----|-7--9--10--12\-|

G|--------------------|-------------|
D|--------------------|-------------|
A|-----------------x2-|-------------|
E|-7-7-7-7-7-7-7-7----|--5~--5~--5~-|

G|-----------------| x4
D|-----------------|
A|-----------------|
E|-5-5-5-5-5-5-5-5-|

Play the verse riff for the solo
Chorus
Bridge
Verse 
Chorus x2 

Outro
G|---------------|---------------|-----------------| x2
D|---------------|---------------|-----------------|
A|-2~---2--4--5~-|-2~---2--4--5~-|-4~--------------|
E|---------------|---------------|-----------------|
                    
G|---------------|
D|---------------|
A|-2~---2--4--5~-|
E|---------------|



| /  slide up
| \  slide down
| h  hammer-on
| p  pull-off
| ~  vibrato
| +  harmonic
| x  Mute note
=============================================================================
            
Submit corrections


        Jet lessons Hard to play? Try these video lessons and learn fast Jet lessons
        
↑ Back to top | Tablatures and chords for acoustic guitar and electric guitar, ukulele, drums are parodies/interpretations of the original songs. You may use it for private study, scholarship, research or language learning purposes only