» » »

Wings - Jet Bass

Artists:  A B C D E F G H I J K L M N O P Q R S T U V W X Y Z # 

Jet Bass

(ver. 2) Click to play this song!
Wings
 Rating:
2.9/5 (23 votes)

 Jet lessons Tabs too difficult? Try these video lessons and learn fast
 
                   Intro
    Q=132
   4/4
    Gtr I
    H    q  E E   +W           H    q  E E   +W
||--------------|------------|-------------|--------|
||o-------------|------------|-------------|--------|
||o-2----2--4-5-|-(5)--------|-2----2--4-5-|-(5)----|
||--------------|------------|-------------|--------|


  1.                       2.
  W          +W             W          +W
|----------|-------------||----------|--------|
|----------|------------o||----------|--------|
|-4--------|-(4)--------o||-4--------|-(4)----|
|----------|-------------||----------|--------|


  H    q  E E   +W           Q  E E E E E E   E E E E E E E E
|-------------|------------|----------------|------------------|
|-------------|------------|----------------|------------------|
|-2----2--4-5-|-(5)--------|----------------|------------------|
|-------------|------------|-5--5-5-5-5-5-5-|-5-5-5-5-5-5-5-5--|


                                       1st & 2nd Verses
  E E E E E E E E   E E E E E E E E     Q  Q  +E  E E E   E E E E E E E E
|-----------------|-----------------||------------------|------------------|
|-----------------|-----------------||o-----------------|------------------|
|-----------------|-----------------||o-----------------|------------------|
|-5-5-5-5-5-5-5-5-|-5-5-5-5-5-5-5-5-||--5--5--(5)-5-5-5-|-5-5-5-5-5-5-5-5--|


  E E E E E E E E   E E E E E E E E   Q  Q  +E  E E E   E E E E E E E E
|-----------------|-----------------|-----------------|------------------|
|-----------------|-----------------|-----------------|------------------|
|-----------------|-----------------|-----------------|------------------|
|-5-5-5-5-5-5-5-5-|-5-5-5-5-5-5-5-5-|-5--5--(5)-5-5-5-|-5-5-5-5-5-5-5-5--|


                                   Chorus
  Q  Q  E E E E   E E E E +H        W          +W
|---------------|----------------||----------|--------|
|---------------|----------------||----------|--------|
|---------------|----------------||-4--------|-(4)----|
|-5--5--5-5-5-5-|-5-5-5-5-(5)----||----------|--------|


  H    q  E E   +W           Q  Q  E E E E   E E E E E E E E
|-------------|------------|---------------|------------------|
|-------------|------------|---------------|------------------|
|-2----2--4-5-|-(5)--------|---------------|------------------|
|-------------|------------|-5--5--5-5-5-5-|-5-5-5-5-5-5-5-5--|


                                         Bridge
                                        $
  E E E E E E E E   E E E E E E E E       E E E E E E E E   E E E E E E E E
|-----------------|------------------||-|-----------------|-----------------|
|-----------------|-----------------o||-|-----------------|-----------------|
|-----------------|-----------------o||-|-2-2-2-2-2-2-2-2-|-2-2-2-2-2-2-2-2-|
|-5-5-5-5-5-5-5-5-|-5-5-5-5-5-5-5-5--||-|-----------------|-----------------|


  E E E E E E E E   +E  Q  E +E  Q  E   E E E E E E E E   E E E E E E E E
|-----------------|--------1-(1)-2--3-|-----------------|------------------|
|---------------2-|-(2)-4-------------|-----------------|------------------|
|-2-2-2-2-2-2-2---|-------------------|-2-2-2-2-2-2-2-2-|-2-2-2-2-2-2-2-2--|
|-----------------|-------------------|-----------------|------------------|


  E E E E E E E E   +E  Q  E +E  Q  E   E E E E E E E E   E E E E E E E E
|-----------------|--------1-(1)-2--3-|-----------------|------------------|
|---------------2-|-(2)-4-------------|-----------------|------------------|
|-2-2-2-2-2-2-2---|-------------------|-2-2-2-2-2-2-2-2-|-2-2-2-2-2-2-2-2--|
|-----------------|-------------------|-----------------|------------------|


  Q.   E +E  Q.     +W           E E E E E E E E   E E E E E E E E
|-----------------|------------|-----------------|------------------|
|-----------------|------------|-----------------|------------------|
|------7-(7)------|------------|-----------------|------------------|
|-5----------5----|-(5)--------|-5-5-5-5-5-5-5-5-|-5-5-5-5-5-5-5-5--|


                                       Synthesizer Solo
                             To Coda
  E E E E E E E E   E E E E E E E E     Q  E E E E E E   E E E E E E E E
|-----------------|------------------||----------------|-----------------|
|-----------------|------------------||----------------|-----------------|
|-----------------|------------------||----------------|-----------------|
|-5-5-5-5-5-5-5-5-|-5-5-5-5-5-5-5-5--||-5--5-5-5-5-5-5-|-5-5-5-5-5-5-5-5-|


  E E E E E E E E   E E E E E E E E   Q  E E E E E E   E E E E E E E E
|-----------------|-----------------|----------------|------------------|
|-----------------|-----------------|----------------|------------------|
|-----------------|-----------------|----------------|------------------|
|-5-5-5-5-5-5-5-5-|-5-5-5-5-5-5-5-5-|-5--5-5-5-5-5-5-|-5-5-5-5-5-5-5-5--|


                                      Chorus
  E E E E E E E E   E E E E E E E E    W          +W
|-----------------|-----------------||----------|--------|
|-----------------|-----------------||----------|--------|
|-----------------|-----------------||-4--------|-(4)----|
|-5-5-5-5-5-5-5-5-|-5-5-5-5-5-5-5-5-||----------|--------|


  H    q  E E   +W           Q  Q  E E E E   E E E E E E E E
|-------------|------------|---------------|------------------|
|-------------|------------|---------------|------------------|
|-2----2--4-5-|-(5)--------|---------------|------------------|
|-------------|------------|-5--5--5-5-5-5-|-5-5-5-5-5-5-5-5--|


                                     3rd Verse
                      D.S. al Coda &
  Q  Q  E E E E   E E E E E E E E     E E E E E E E E   E E E E E E E E
|---------------|------------------||-----------------|-----------------|
|---------------|------------------||-----------------|-----------------|
|---------------|------------------||-----------------|-----------------|
|-5--5--5-5-5-5-|-5-5-5-5-5-5-5-5--||-5-5-5-5-5-5-5-5-|-5-5-5-5-5-5-5-5-|


  E E E E E E E E   E E E E E E E E   E E E E E E E E   E E E E E E E E
|-----------------|-----------------|-----------------|------------------|
|-----------------|-----------------|-----------------|------------------|
|-----------------|-----------------|-----------------|------------------|
|-5-5-5-5-5-5-5-5-|-5-5-5-5-5-5-5-5-|-5-5-5-5-5-5-5-5-|-5-5-5-5-5-5-5-5--|


                                     Chorus
  E E E E E E E E   E E E E +H        W          +W
|-----------------|----------------||----------|--------|
|-----------------|----------------||----------|--------|
|-----------------|----------------||-4--------|-(4)----|
|-5-5-5-5-5-5-5-5-|-5-5-5-5-(5)----||----------|--------|


  H    q  E E   +W           E E E E E E E E   E E E E E E E E
|-------------|------------|-----------------|------------------|
|-------------|------------|-----------------|------------------|
|-2----2--4-5-|-(5)--------|-----------------|------------------|
|-------------|------------|-5-5-5-5-5-5-5-5-|-5-5-5-5-5-5-5-5--|


  E E E E E E E E   E E E E E E E E   W          +W
|-----------------|-----------------|----------|--------|
|-----------------|-----------------|----------|--------|
|-----------------|-----------------|-4--------|-(4)----|
|-5-5-5-5-5-5-5-5-|-5-5-5-5-5-5-5-5-|----------|--------|


  H    q  E E   +W           E E E E E E E E   E E E E E E E E
|-------------|------------|-----------------|------------------||
|-------------|------------|-----------------|------------------||
|-2----2--4-5-|-(5)--------|-----------------|------------------||
|-------------|------------|-5-5-5-5-5-5-5-5-|-5-5-5-5-5-5-5-5--||


 Outro
  H    q  E E   +W           H    q  E E   +W
|-------------|------------|-------------|--------|
|-------------|------------|-------------|--------|
|-2----2--4-5-|-(5)--------|-2----2--4-5-|-(5)----|
|-------------|------------|-------------|--------|


  W          +W           Q  Q  Q  Q
|----------|------------|-------------|
|----------|------------|-------------|
|-4--------|-(4)--------|-------------|
|----------|------------|-5--5--5--5--|


                H.=H
  Q  Q  Q  Q    Q  E E +E  E Q    +W
|-------------|-----------------|--------*|
|-------------|-----------------|--------*|
|-------------|-4----4-(4)------|--------*|
|-5--5--5--5--|--------------5--|-(5)----*|            
Submit corrections


        Jet lessons Hard to play? Try these video lessons and learn fast Jet lessons
        
↑ Back to top | Tablatures and chords for acoustic guitar and electric guitar, ukulele, drums are parodies/interpretations of the original songs. You may use it for private study, scholarship, research or language learning purposes only