» » »

Wilson Pickett - Land Of 1000 Dances Tabs

Artists:  A B C D E F G H I J K L M N O P Q R S T U V W X Y Z # 

Land Of 1000 Dances Tabs

(ver. 2) Click to play this song!
Wilson Pickett
 Rating:
4.6/5 (20 votes)

 Land Of 1000 Dances lessons Tabs too difficult? Try these video lessons and learn fast
 
                 Intro
  Q=172
             Bm                    D
 4/4
  Gtr I (El. Gtr.)
  W          W          W          W
|----------|-7--------|----------|-5----|
|----------|-7--------|----------|-7----|
|----------|-7--------|----------|-7----|
|----------|-9--------|----------|-7----|
|----------|-9--------|----------|-5----|
|----------|-7--------|----------|------|
|
| Gtr III (Horns arr. for Gtr.)
| W          W          W          W
|----------|-2--------|----------|-2----|
|----------|-3--------|----------|-3----|
|----------|-4--------|----------|-2----|
|----------|----------|----------|------|
|----------|----------|----------|------|
|----------|----------|----------|------|


                        D5
  W          W          Q   E E E E E E
|----------|----------|-----------------|
|----------|----------|-----------------|
|----------|----------|-----7---5s7s5s7-|
|----------|----------|-----------------|
|----------|----------|-----5---3s5s3s5-|
|----------|----------|-----------------|
|
| Gtr II (El. Gtr.)
| W          W          E E E E E E E E
|----------|----------|-----------------|
|----------|----------|-----------------|
|----------|----------|-----------------|
|----------|----------|-7-7-9-9-7-7-9-9-|
|----------|----------|-5-5-5-5-5-5-5-5-|
|----------|----------|-----------------|


  +Q    E E E E E E   +Q    E E E E E E
|-------------------|-------------------|
|-------------------|-------------------|
|-(7)---7---5s7s5s7-|-(7)---7---5s7s5s7-|
|-------------------|-------------------|
|-(5)---5---3s5s3s5-|-(5)---5---3s5s3s5-|
|-------------------|-------------------|
|
|  E  E E E E E E E    E  E E E E E E E
|-------------------|-------------------|
|-------------------|-------------------|
|-------------------|-------------------|
|--7--7-9-9-7-7-9-9-|--7--7-9-9-7-7-9-9-|
|--5--5-5-5-5-5-5-5-|--5--5-5-5-5-5-5-5-|
|-------------------|-------------------|


                      1st & 2nd Verses
                    $
                       D5
  +Q    E E E E E E    +Q    E E E E E E
|-------------------||--------------------|
|-------------------||--------------------|
|-(7)---7---5s7s5s7-||-(7)---7---5s7s5s7--|
|-------------------||--------------------|
|-(5)---5---3s5s3s5-||-(5)---5---3s5s3s5--|
|-------------------||--------------------|
|
|  E  E E E E E E E     E  E E E E E E E
|-------------------||--------------------|
|-------------------||--------------------|
|-------------------||--------------------|
|--7--7-9-9-7-7-9-9-||--7--7-9-9-7-7-9-9--|
|--5--5-5-5-5-5-5-5-||--5--5-5-5-5-5-5-5--|
|-------------------||--------------------|


  +Q    E E E E E E   +Q    E E E E E E
|-------------------|-------------------|
|-------------------|-------------------|
|-(7)---7---5s7s5s7-|-(7)---7---5s7s5s7-|
|-------------------|-------------------|
|-(5)---5---3s5s3s5-|-(5)---5---3s5s3s5-|
|-------------------|-------------------|
|
|  E  E E E E E E E    E  E E E E E E E
|-------------------|-------------------|
|-------------------|-------------------|
|-------------------|-------------------|
|--7--7-9-9-7-7-9-9-|--7--7-9-9-7-7-9-9-|
|--5--5-5-5-5-5-5-5-|--5--5-5-5-5-5-5-5-|
|-------------------|-------------------|


  +Q    E E E E E E   +Q    E E E E E E
|-------------------|--------------------|
|-------------------|--------------------|
|-(7)---7---5s7s5s7-|-(7)---7---5s7s5s7--|
|-------------------|--------------------|
|-(5)---5---3s5s3s5-|-(5)---5---3s5s3s5--|
|-------------------|--------------------|
|
|  E  E E E E E E E    E  E E E E E E E
|-------------------|--------------------|
|-------------------|--------------------|
|-------------------|--------------------|
|--7--7-9-9-7-7-9-9-|--7--7-9-9-7-7-9-9--|
|--5--5-5-5-5-5-5-5-|--5--5-5-5-5-5-5-5--|
|-------------------|--------------------|


  +Q    E E E E E E   +Q    E E E E E E
|-------------------|-------------------|
|-------------------|-------------------|
|-(7)---7---5s7s5s7-|-(7)---7---5s7s5s7-|
|-------------------|-------------------|
|-(5)---5---3s5s3s5-|-(5)---5---3s5s3s5-|
|-------------------|-------------------|
|
|  E  E E E E E E E    E  E E E E E E E
|-------------------|-------------------|
|-------------------|-------------------|
|-------------------|-------------------|
|--7--7-9-9-7-7-9-9-|--7--7-9-9-7-7-9-9-|
|--5--5-5-5-5-5-5-5-|--5--5-5-5-5-5-5-5-|
|-------------------|-------------------|


  +Q    E E E E E E   +Q    E E E E E E
|-------------------|--------------------|
|-------------------|--------------------|
|-(7)---7---5s7s5s7-|-(7)---7---5s7s5s7--|
|-------------------|--------------------|
|-(5)---5---3s5s3s5-|-(5)---5---3s5s3s5--|
|-------------------|--------------------|
|
|  E  E E E E E E E    E  E E E E E E E
|-------------------|--------------------|
|-------------------|--------------------|
|-------------------|--------------------|
|--7--7-9-9-7-7-9-9-|--7--7-9-9-7-7-9-9--|
|--5--5-5-5-5-5-5-5-|--5--5-5-5-5-5-5-5--|
|-------------------|--------------------|


  +Q    E E E E E E   +Q    E E E E E E
|-------------------|-------------------|
|-------------------|-------------------|
|-(7)---7---5s7s5s7-|-(7)---7---5s7s5s7-|
|-------------------|-------------------|
|-(5)---5---3s5s3s5-|-(5)---5---3s5s3s5-|
|-------------------|-------------------|
|
|  E  E E E E E E E    E  E E E E E E E
|-------------------|-------------------|
|-------------------|-------------------|
|-------------------|-------------------|
|--7--7-9-9-7-7-9-9-|--7--7-9-9-7-7-9-9-|
|--5--5-5-5-5-5-5-5-|--5--5-5-5-5-5-5-5-|
|-------------------|-------------------|


  +Q    E E E E E E   +Q    E E E E E E
|-------------------|--------------------|
|-------------------|--------------------|
|-(7)---7---5s7s5s7-|-(7)---7---5s7s5s7--|
|-------------------|--------------------|
|-(5)---5---3s5s3s5-|-(5)---5---3s5s3s5--|
|-------------------|--------------------|
|
|  E  E E E E E E E    E  E E E E E E E
|-------------------|--------------------|
|-------------------|--------------------|
|-------------------|--------------------|
|--7--7-9-9-7-7-9-9-|--7--7-9-9-7-7-9-9--|
|--5--5-5-5-5-5-5-5-|--5--5-5-5-5-5-5-5--|
|-------------------|--------------------|


                                                     To Coda
  +Q    E E E E E E   +Q    E E E E E E   +Q    E E E E E E    +E  E Q  H
|-------------------|-------------------|--------------------|---------------|
|-------------------|-------------------|--------------------|---------------|
|-(7)---7---5s7s5s7-|-(7)---7---5s7s5s7-|-(7)---7---5s7s5s7--|-(7)-----------|
|-------------------|-------------------|--------------------|---------------|
|-(5)---5---3s5s3s5-|-(5)---5---3s5s3s5-|-(5)---5---3s5s3s5--|-(5)-----------|
|-------------------|-------------------|--------------------|---------------|
|
|  E  E E E E E E E    E  E E E E E E E    E  E E E E E E E     E  E Q  H
|-------------------|-------------------|--------------------|---------------|
|-------------------|-------------------|--------------------|---------------|
|-------------------|-------------------|--------------------|---------------|
|--7--7-9-9-7-7-9-9-|--7--7-9-9-7-7-9-9-|--7--7-9-9-7-7-9-9--|--7------------|
|--5--5-5-5-5-5-5-5-|--5--5-5-5-5-5-5-5-|--5--5-5-5-5-5-5-5--|--5------------|
|-------------------|-------------------|--------------------|---------------|


              Chorus
               N.C.
               Gtr IV (Vocals arr. for Gtr.)
  W            H    E E E E   +E  E Q  E E E E   +Q   E E Q  E E
|----------||---------------|------------------|------------------|
|----------||o-3----1-3-1-3-|-(3)------1-3-1-3-|-(3)--1---1-------|
|----------||---------------|------------------|--------2----2-0--|
|----------||---------------|------------------|------------------|
|----------||o--------------|------------------|------------------|
|----------||---------------|------------------|------------------|


  Q  Q  E E E E   +Q.   E H      W          H    E E E E
|---------------|--------------|----------|---------------|
|-------1-3-1-3-|-(3)----------|----------|-3----1-3-1-3--|
|-2-------------|--------------|----------|---------------|
|---------------|--------------|----------|---------------|
|---------------|--------------|----------|---------------|
|---------------|--------------|----------|---------------|


  +Q.   E E E E E   +Q   E E Q  E E   Q  Q  E E E E   +H.      Q
|-----------------|-----------------|---------------|--------------|
|-(3)-----1-3-1-3-|-(3)--1---1------|-------1-3-1-3-|-(3)----------|
|-----------------|--------2----2-0-|-2-------------|--------------|
|-----------------|-----------------|---------------|--------------|
|-----------------|-----------------|---------------|--------------|
|-----------------|-----------------|---------------|--------------|


                   Saxophone Solo
  1.
                    D5
  Gtr I
  W                 H       E E E E   +H        E E E E   +H        E E E E
|----------------||-----------------|-------------------|--------------------|
|----------------||-----------------|-------------------|--------------------|
|----------------||---------5s7s5s7-|-(7)-------5s7s5s7-|-(7)-------5s7s5s7--|
|----------------||-----------------|-------------------|--------------------|
|----------------||---------3s5s3s5-|-(5)-------3s5s3s5-|-(5)-------3s5s3s5--|
|----------------||-----------------|-------------------|--------------------|
|
| Gtr II
| W                 E E E E E E E E    E  E E E E E E E    E  E E E E E E E
|----------------||-----------------|-------------------|--------------------|
|----------------||-----------------|-------------------|--------------------|
|----------------||-----------------|-------------------|--------------------|
|----------------||-7-7-9-9-7-7-9-9-|--7--7-9-9-7-7-9-9-|--7--7-9-9-7-7-9-9--|
|----------------||-5-5-5-5-5-5-5-5-|--5--5-5-5-5-5-5-5-|--5--5-5-5-5-5-5-5--|
|----------------||-----------------|-------------------|--------------------|
|
| Gtr V (Sax. arr. for Gtr.)
| E E E E Q  E E    Q   Q   E E Q      Q    E E E E E E    Q    Q   E E E E
|----------------||-----------------|-------------------|--------------------|
|----------------||-----------------|-------------------|--------------------|
|-2--------------||-----------------|-------------------|--------------------|
|---0-3-4-0--0---||-0---0-----0-0---|--0----0-0---0-3h4-|--0----0-----0------|
|--------------3-||---------3-------|-----------3-------|-----------3---0----|
|----------------||-----------------|-------------------|--------------------|


  +H          E E E E   +H        E E E E
|---------------------|-------------------|
|---------------------|-------------------|
|-(7)---------5s7s5s7-|-(7)-------5s7s5s7-|
|---------------------|-------------------|
|-(5)---------3s5s3s5-|-(5)-------3s5s3s5-|
|---------------------|-------------------|
|
|  E  E  E  E E E E E    E  E E E E E E E
|---------------------|-------------------|
|---------------------|-------------------|
|---------------------|-------------------|
|--7--7--9--9-7-7-9-9-|--7--7-9-9-7-7-9-9-|
|--5--5--5--5-5-5-5-5-|--5--5-5-5-5-5-5-5-|
|---------------------|-------------------|
|
|  Q     H.             +H.           E E
|---------------------|-------------------|
|-------/3------------|-(3)---------------|
|---------------------|---------------2h4-|
|---------------------|-------------------|
|---------------------|-------------------|
|---------------------|-------------------|


  +H        E E E E   +H        E E E E
|-------------------|--------------------|
|-------------------|--------------------|
|-(7)-------5s7s5s7-|-(7)-------5s7s5s7--|
|-------------------|--------------------|
|-(5)-------3s5s3s5-|-(5)-------3s5s3s5--|
|-------------------|--------------------|
|
|  E  E E E E E E E    E  E E E E E E E
|-------------------|--------------------|
|-------------------|--------------------|
|-------------------|--------------------|
|--7--7-9-9-7-7-9-9-|--7--7-9-9-7-7-9-9--|
|--5--5-5-5-5-5-5-5-|--5--5-5-5-5-5-5-5--|
|-------------------|--------------------|
|
|  Q    E E Q   E E    E  E Q   Q   Q
|-------------------|--------------------|
|-------------------|--------------------|
|--2----------------|--------------------|
|-------3h4-0-------|-----0-0---3---5----|
|---------------2---|--------------------|
|-------------------|--------------------|


  +H        E E E E     +H            E E   E E
|---------------------|-------------------------|
|---------------------|-------------------------|
|-(7)-------5s7s5s7---|-(7)-----------5s7s==5s7-|
|---------------------|-------------------------|
|-(5)-------3s5s3s5---|-(5)-----------3s5s==3s5-|
|---------------------|-------------------------|
|
|  E  E E E E E E E      E  E   E E   E E   E E
|---------------------|-------------------------|
|---------------------|-------------------------|
|---------------------|-------------------------|
|--7--7-9-9-7-7-9-9---|--7--7---9-9---7-7---9-9-|
|--5--5-5-5-5-5-5-5---|--5--5---5-5---5-5---5-5-|
|---------------------|-------------------------|
|
|  Q    E E Q   E S S    E  S S E S S E S S E E
|---------------------|-------------------------|
|---------------------|-------------------------|
|---------------------|-------------------------|
|--5----5-4-----------|--3--3-3-4-4-4-4-4-4-4-2-|
|-----------------5-5-|-------------------------|
|---------------------|-------------------------|


  +H        E E E E   +H        E E E E
|-------------------|---------------------|
|-------------------|---------------------|
|-(7)-------5s7s5s7-|-(7)-------5s7s5s7---|
|-------------------|---------------------|
|-(5)-------3s5s3s5-|-(5)-------3s5s3s5---|
|-------------------|---------------------|
|
|  E  E E E E E E E    E  E E E E E E E
|-------------------|---------------------|
|-------------------|---------------------|
|-------------------|---------------------|
|--7--7-9-9-7-7-9-9-|--7--7-9-9-7-7-9-9---|
|--5--5-5-5-5-5-5-5-|--5--5-5-5-5-5-5-5---|
|-------------------|---------------------|
|
|  Q    E E Q   E E    E  E E E E E E E
|-------------------|---------------------|
|-------------------|---------------------|
|--2----------------|---------------------|
|-------3h4-0-------|-----0-0-4-4-5-5-6---|
|---------------0---|---------------------|
|-------------------|---------------------|


  +H        E E E E   +H          E E E E
|-------------------|---------------------|
|-------------------|---------------------|
|-(7)-------5s7s5s7-|-(7)---------5s7s5s7-|
|-------------------|---------------------|
|-(5)-------3s5s3s5-|-(5)---------3s5s3s5-|
|-------------------|---------------------|
|
|  E  E E E E E E E    E  E   E E E E E E
|-------------------|---------------------|
|-------------------|---------------------|
|-------------------|---------------------|
|--7--7-9-9-7-7-9-9-|--7--7---9-9-7-7-9-9-|
|--5--5-5-5-5-5-5-5-|--5--5---5-5-5-5-5-5-|
|-------------------|---------------------|
|
|  Q    Q   E E E E   +E  S S E E E E E E
|-------------------|---------------------|
|-------------------|---------------------|
|-------------------|-----5-5-5---5-5---5-|
|--6----7---7-----6-|-(6)-------7-----7---|
|-------------------|---------------------|
|-------------------|---------------------|


  +H        E  E E E   +H          E E E E
|--------------------|----------------------|
|--------------------|----------------------|
|-(7)-------5s=7s5s7-|-(7)---------5s7s5s7--|
|--------------------|----------------------|
|-(5)-------3s=5s3s5-|-(5)---------3s5s3s5--|
|--------------------|----------------------|
|
|  E E E E  E  E E E    E  E   E E E E E E
|--------------------|----------------------|
|--------------------|----------------------|
|--------------------|----------------------|
|--7-7-9-9--7--7-9-9-|--7--7---9-9-7-7-9-9--|
|--5-5-5-5--5--5-5-5-|--5--5---5-5-5-5-5-5--|
|--------------------|----------------------|
|
|  E E E E +E  E E E    E  S S E E E E E E
|--------------------|----------------------|
|--------------------|----------------------|
|--------------------|----------------------|
|--6h7-4-5-(5)-4-----|---------4-5-6-7-5-4--|
|----------------5---|-----5-5--------------|
|--------------------|----------------------|


                                                    2.
                                           D.S. al Coda
                                                     N.C.
  +H        E E E E   +E  E Q  H      Wx5            W
|-------------------|---------------|-------------||-------||
|-------------------|---------------|------------o||-------||
|-(7)-------5s7s5s7-|-(7)-----------|-------------||-------||
|-------------------|---------------|-------------||-------||
|-(5)-------3s5s3s5-|-(5)-----------|------------o||-------||
|-------------------|---------------|-------------||-------||
|
|  E  E E E E E E E    E  E Q  H      Wx5            W
|-------------------|---------------|-------------||-------||
|-------------------|---------------|------------o||-------||
|-------------------|---------------|-------------||-------||
|--7--7-9-9-7-7-9-9-|--7------------|-------------||-------||
|--5--5-5-5-5-5-5-5-|--5------------|------------o||-------||
|-------------------|---------------|-------------||-------||
|
|  Q    Q   H          W              W              W
|-------------------|---------------|-------------||-------||
|-------------------|---------------|------------o||-------||
|-------------------|---------------|-------------||-------||
|-------------------|---------------|-------------||-------||
|--5----------------|---------------|------------o||-------||
|-------------------|---------------|-------------||-------||


  &
  D5
   Q    E E E E E E   +Q    E E E E E E
|-------------------|-------------------|
|-------------------|-------------------|
|-(7)---7---5s7s5s7-|-(7)---7---5s7s5s7-|
|-------------------|-------------------|
|-(5)---5---3s5s3s5-|-(5)---5---3s5s3s5-|
|-------------------|-------------------|
|
|  E  E E E E E E E    E  E E E E E E E
|-------------------|-------------------|
|-------------------|-------------------|
|-------------------|-------------------|
|--7--7-9-9-7-7-9-9-|--7--7-9-9-7-7-9-9-|
|--5--5-5-5-5-5-5-5-|--5--5-5-5-5-5-5-5-|
|-------------------|-------------------|


  +Q    E E E E E E   +Q    E E E E E E
|-------------------|--------------------|
|-------------------|--------------------|
|-(7)---7---5s7s5s7-|-(7)---7---5s7s5s7--|
|-------------------|--------------------|
|-(5)---5---3s5s3s5-|-(5)---5---3s5s3s5--|
|-------------------|--------------------|
|
|  E  E E E E E E E    E  E E E E E E E
|-------------------|--------------------|
|-------------------|--------------------|
|-------------------|--------------------|
|--7--7-9-9-7-7-9-9-|--7--7-9-9-7-7-9-9--|
|--5--5-5-5-5-5-5-5-|--5--5-5-5-5-5-5-5--|
|-------------------|--------------------|


   Outro
    D5
    +Q    E E E E E E   +Q    E E E E E E
||--------------------|-------------------|
||o-------------------|-------------------|
||--(7)---7---5s7s5s7-|-(7)---7---5s7s5s7-|
||--------------------|-------------------|
||o-(5)---5---3s5s3s5-|-(5)---5---3s5s3s5-|
||--------------------|-------------------|
|
|    E  E E E E E E E    E  E E E E E E E
||--------------------|-------------------|
||o-------------------|-------------------|
||--------------------|-------------------|
||---7--7-9-9-7-7-9-9-|--7--7-9-9-7-7-9-9-|
||o--5--5-5-5-5-5-5-5-|--5--5-5-5-5-5-5-5-|
||--------------------|-------------------|


  +Q    E E E E E E   +Q    E E E E E E
|-------------------|--------------------||
|-------------------|-------------------o||
|-(7)---7---5s7s5s7-|-(7)---7---5s7s5s7--||
|-------------------|--------------------||
|-(5)---5---3s5s3s5-|-(5)---5---3s5s3s5-o||
|-------------------|--------------------||
|
|  E  E E E E E E E    E  E E E E E E E
|-------------------|--------------------||
|-------------------|-------------------o||
|-------------------|--------------------||
|--7--7-9-9-7-7-9-9-|--7--7-9-9-7-7-9-9--||
|--5--5-5-5-5-5-5-5-|--5--5-5-5-5-5-5-5-o||
|-------------------|--------------------||            
Submit corrections


        Land Of 1000 Dances lessons Hard to play? Try these video lessons and learn fast Land Of 1000 Dances lessons
        
↑ Back to top | Tablatures and chords for acoustic guitar and electric guitar, ukulele, drums are parodies/interpretations of the original songs. You may use it for private study, scholarship, research or language learning purposes only