» » »

Williams Hank - Mind Your Own Business Tabs

Artists:  A B C D E F G H I J K L M N O P Q R S T U V W X Y Z # 

Mind Your Own Business Tabs

(ver. 1) Click to play this song!
Williams Hank
 Rating:
4/5 (4 votes)

 Mind Your Own Business lessons Tabs too difficult? Try these video lessons and learn fast
 
                The solo is about 95% right.


Intro:

-|-----------------------------------/4-7-4-0---------------------------------
-|-------3-4-3---------4------------------------------------------------------
-|-4-6-4-------4-6---4----4-6--4-6------------6-4-----------------------------
-|------------------------------------------------6-----------6---------------
-|--------------------------------------------------7-4---4-7---7-------------
-|------------------------------------------------------7---------------------
   Solo:                                                                      

-|----------------------------------------------------------------------------
-|----------------------------------------------------------------------------
-|------------------------------------------------------------------4-6-7-----
-|-------2-5-4-2---2-------2-5-4-2--------2-5-4-2---------------4-6-----------
-|-2h3h4---------4---2h3h4----------2h3h4---------4-2-----4-5-6---------------
-|----------------------------------------------------4-7---------------------
                                                                              

-|-----------------/4-7-4-7-3-2-0h2p0--------------------------2-3------------
-|---------4-7-4-7--------------------2-------2---5-5-2--0h2h5----------------
-|-6-7-6-7------------------------------4-1-4---4-----------------------------
-|----------------------------------------------------------------------------
-|----------------------------------------------------------------------------
-|----------------------------------------------------------------------------
                                                                              

-|-/7-6-5-1/2--/7-6-5-3-4---------------------------------0-------------------
-|------------------------5-----5-/5-/5-5-----5-/5-/5-----0-------------------
-|--------------------------6-4-----------6-4-------------1-------------------
-|--------------------------------------------------------2-------------------
-|--------------------------------------------------------2-------------------
-|--------------------------------------------------------0-------------------
            
Submit corrections


        Mind Your Own Business lessons Hard to play? Try these video lessons and learn fast Mind Your Own Business lessons
        
↑ Back to top | Tablatures and chords for acoustic guitar and electric guitar, ukulele, drums are parodies/interpretations of the original songs. You may use it for private study, scholarship, research or language learning purposes only