» » »

Williams Hank - Jambalaya Bass

Artists:  A B C D E F G H I J K L M N O P Q R S T U V W X Y Z # 

Jambalaya Bass

(ver. 1) Click to play this song!
Williams Hank
 Rating:
4/5 (4 votes)
                hank williams_jambalaya

TablEdited by Jan Bjorklund   
You are welcome to request for tabs!
Fingering and positions as suggested by TablEdit, please use common sense.


TablEdited by Jan Bjorklund
Tuning : E A D G 	Time Signature: 4/4

 |       |       |       |        |       |       |       |        
|--------------------------------|--------------------------------|
|--------------------------------|--------0---------------0-------|
|3---------------3-------3-------|--------------------------------|
|--------3-----------------------|3---------------3---------------|

 |       |       |       |        |       |       |       |        
|--------------------------------|--------------------------------|
|--------0---------------0-------|--------------------------------|
|--------------------------------|3---------------3---------------|
|3---------------3---------------|--------3---------------3-------|

 |       |       |       |        |       |       |       |        
|--------------------------------|--------------------------------|
|--------------------------------|--------0---------------0-------|
|3---------------3-------3-------|--------------------------------|
|--------3-----------------------|3---------------3---------------|

 |       |       |       |        |       |       |       |        
|--------------------------------|--------------------------------|
|--------0---------------0-------|--------------------------------|
|--------------------------------|3---------------3---------------|
|3---------------3---------------|--------3---------------3-------|

 |       |       |       |        |       |       |       |        
|--------------------------------|--------------------------------|
|--------------------------------|--------0---------------0-------|
|3---------------3-------3-------|--------------------------------|
|--------3-----------------------|3---------------3---------------|

 |       |       |       |        |       |       |       |        
|--------------------------------|--------------------------------|
|--------0---------------0-------|--------------------------------|
|--------------------------------|3---------------3---------------|
|3---------------3---------------|--------3---------------3-------|

 |       |       |       |        |       |       |       |        
|--------------------------------|--------------------------------|
|--------------------------------|--------0---------------0-------|
|3---------------3-------3-------|--------------------------------|
|--------3-----------------------|3---------------3---------------|

 |       |       |       |        |       |       |       |        
|--------------------------------|--------------------------------|
|--------0---------------0-------|--------------------------------|
|--------------------------------|3---------------3---------------|
|3---------------3---------------|--------3---------------3-------|

 |       |       |       |        |       |       |       |        
|--------------------------------|--------------------------------|
|--------------------------------|--------0---------------0-------|
|3---------------3-------3-------|--------------------------------|
|--------3-----------------------|3---------------3---------------|

 |       |       |       |        |       |       |       |        
|--------------------------------|--------------------------------|
|--------0---------------0-------|--------------------------------|
|--------------------------------|3---------------3---------------|
|3---------------3---------------|--------3---------------3-------|

 |       |       |       |        |       |       |       |        
|--------------------------------|--------------------------------|
|--------------------------------|--------0---------------0-------|
|3---------------3-------3-------|--------------------------------|
|--------3-----------------------|3---------------3---------------|

 |       |       |       |        |       |       |       |        
|--------------------------------|--------------------------------|
|--------0---------------0-------|--------------------------------|
|--------------------------------|3---------------3---------------|
|3---------------3---------------|--------3---------------3-------|

 |       |       |       |        |       |       |       |        
|--------------------------------|--------------------------------|
|--------------------------------|--------0---------------0-------|
|3---------------3-------3-------|--------------------------------|
|--------3-----------------------|3---------------3---------------|

 |       |       |       |        |       |       |       |        
|--------------------------------|--------------------------------|
|--------0---------------0-------|--------------------------------|
|--------------------------------|3---------------3---------------|
|3---------------3---------------|--------3---------------3-------|

 |       |       |       |        |       |       |       |        
|--------------------------------|--------------------------------|
|--------------------------------|--------0---------------0-------|
|3---------------3-------3-------|--------------------------------|
|--------3-----------------------|3---------------3---------------|

 |       |       |       |        |       |       |       |        
|--------------------------------|--------------------------------|
|--------0---------------0-------|--------------------------------|
|--------------------------------|3---------------3---------------|
|3---------------3---------------|--------3---------------3-------|

 |       |       |       |        |       |       |       |        
|--------------------------------|--------------------------------|
|--------------------------------|--------0---------------0-------|
|3---------------3-------3-------|--------------------------------|
|--------3-----------------------|3---------------3---------------|

 |       |       |       |        |       |       |       |        
|--------------------------------|--------------------------------|
|--------0---------------0-------|--------------------------------|
|--------------------------------|3---------------3---------------|
|3---------------3---------------|--------3---------------3-------|

 |       |       |       |        |       |       |       |        
|--------------------------------|--------------------------------|
|--------------------------------|--------0---------------0-------|
|3---------------3-------3-------|--------------------------------|
|--------3-----------------------|3---------------3---------------|

 |       |       |       |        |       |       |       |        
|--------------------------------|--------------------------------|
|--------0---------------0-------|--------------------------------|
|--------------------------------|3---------------3---------------|
|3---------------3---------------|--------3---------------3-------|

 |       |       |       |        |       |       |       |        
|--------------------------------|--------------------------------|
|--------------------------------|--------0---------------0-------|
|3---------------3-------3-------|--------------------------------|
|--------3-----------------------|3---------------3---------------|

 |       |       |       |        |       |       |       |        
|--------------------------------|--------------------------------|
|--------0---------------0-------|--------------------------------|
|--------------------------------|3---------------3---------------|
|3---------------3---------------|--------3---------------3-------|

 |       |       |       |        |       |       |       |        
|--------------------------------|--------------------------------|
|--------------------------------|--------0---------------0-------|
|3---------------3-------3-------|--------------------------------|
|--------3-----------------------|3---------------3---------------|

 |       |       |       |        |       |       |       |        
|--------------------------------|--------------------------------|
|--------0---------------0-------|--------------------------------|
|--------------------------------|3---------------3---------------|
|3---------------3---------------|--------3---------------3-------|

 |       |       |       |        |       |       |       |        
|--------------------------------|--------------------------------|
|--------0---------------0-------|--------------------------------|
|--------------------------------|3---------------3---------------|
|3---------------3---------------|--------3---------------3-------|

 |       |       |       |        |       |       |       |        
|--------------------------------|--------------------------------|
|--------0---------------0-------|--------------------------------|
|--------------------------------|3---------------3---------------|
|3---------------3---------------|--------3---------------3-------|

 |       |       |       |        |       |       |       |        
|--------------------------------|--------------------------------|
|--------------------------------|--------------------------------|
|3---------------3---------------|--------------------------------|
|--------3---------------3-------|--------------------------------|

 
            
Submit corrections

↑ Back to top | Tablatures and chords for acoustic guitar and electric guitar, ukulele, drums are parodies/interpretations of the original songs. You may use it for private study, scholarship, research or language learning purposes only