Home » W » Wild Beasts »

Wild Beasts - Hooting And Howling Tabs

Artists:  A B C D E F G H I J K L M N O P Q R S T U V W X Y Z # 

Hooting And Howling Tabs

(ver. 2) Click to play this song!
Wild Beasts
Guitar 1 - Benny

Sit out until the second half of the verse . = palm muted
e|--8----8----8----8----5---5---5---5--|
B|--10---10---10---10---5---5---5---5--|
G|--10---10---10---10---5---5---5---5--|
D|--10---10---10---10---7---7---7---7--|
A|88--888--888--888--8--7---7---7---7--|
E|--------------------55-555-555-555-5-|

Main Riff
e|-------------------------------------------------------|
B|15-17-1515-17-----15-17--15-17-1515-17--------15-17-15-|
G|-------------14-17---------------------1414-17---------|
D|-------------------------------------------------------|
A|-------------------------------------------------------|
E|-------------------------------------------------------|

Chorus
e|-----------------------------------------------------------------------|
B|1515-171717-15-1717---------15-17--1515-171717-15-1717--------15-17-15-|
G|--------------------1414-17----------------------------1414-17---------|
D|1414-171717-14-1717----------------1414-171717-14-1717-----------------|
A|-----------------------------------------------------------------------|
E|-----------------------------------------------------------------------|

End the chorus like this
e|----------------------------------------------------------------------|
B|1515-171717-15-1717---------15-17-1515-171717-15-1717--------15-17----|
G|--------------------1414-17---------------------------1414-17-----14~-|
D|1414-171717-14-1717---------------1414-171717-14-1717-----------------|
A|----------------------------------------------------------------------|
E|----------------------------------------------------------------------|

Break
e|----------------------------------------------------------|
B|15-17-15-17~----15-17-15-17~--13-15-13-15~--15-18-15------|
G|-----------------------------------------------------17~--|
D|----------------------------------------------------------|
A|----------------------------------------------------------|
E|----------------------------------------------------------|
            
Submit corrections

↑ Back to top | Tablatures and chords for acoustic guitar and electric guitar, ukulele, drums are parodies/interpretations of the original songs. You may use it for private study, scholarship, research or language learning purposes only