Home » W » Wild Beasts »

Wild Beasts - Back To You Tabs

Artists:  A B C D E F G H I J K L M N O P Q R S T U V W X Y Z # 

Back To You Tabs

(ver. 1) Click to play this song!
Wild Beasts
Tuning: Standard


Intro:

e|-----0-------------------------------0---------------------------|
B|-------------1---------------1---------------1---------------1---|
G|-----------------------------------------------------------------|
D|---------------------0h2-----------------------------0h2---------|
A|-3-------3-------3-------3-------3-------3-------3-------3-------|
E|-----------------------------------------------------------------|


Verse 1:

e|-----0-------------------------------0---------------------------|
B|-------------1---------------1---------------1---------------1---|
G|-----------------------------------------------------------------|
D|---------------------0h2-----------------------------0h2---------|
A|-3-------3-------3-------3-------3-------3-------3-------3-------|
E|-----------------------------------------------------------------|

e|-----0-------------------------------0---------------------------|
B|-------------1---------------1---------------1---------------1---|
G|---------------------0h2-----------------------------0h2---------|
D|-3-------3-------3-------3-------3-------3-------3-------3-------|
A|-----------------------------------------------------------------|
E|-----------------------------------------------------------------|


Verse 2:

e|-----0-------------------------------0---------------------------|
B|-------------1---------------1---------------1---------------1---|
G|-----------------------------------------------------------------|
D|---------------------0h2-----------------------------0h2---------|
A|-3-------3-------3-------3-------3-------3-------3-------3-------|
E|-----------------------------------------------------------------|

e|-----0-------------------------------0---------------------------|
B|-------------1---------------1---------------1---------------1---|
G|---------------------0h2-----------------------------0h2---------|
D|-3-------3-------3-------3-------3-------3-------3-------3-------|
A|-----------------------------------------------------------------|
E|-----------------------------------------------------------------|


Pre-Chorus:

e|-----0-------------------------------0---------------3-----------|
B|-------------1---------------1---------------1---------------1---|
G|---------------------0-------------------------------------------|
D|-----------------------------------------------------------------|
A|---------------------------------0-------0-------0-------0-------|
E|-3-------3-------3-------3---------------------------------------|

e|-----0-------------------------------0---------------0-----------|
B|-------------1---------------1---------------1---------------1---|
G|---------------------0h2-----------------------------------------|
D|-3-------3-------3-------3---------------------------------------|
A|---------------------------------3-------3-----------------------|
E|-------------------------------------------------3-------3-------|


Chorus(strum):

     F     Am             C                             G
   Ooooh ooooh I'm gonna follow my heart right back to you 
     F     Am             C                           G
   Ooooh Ooooh you're the one thing I can't stand to lose 
     F     Am            C                             G
   Ooooh Ooooh I'm gonna follow my heart right back to you 
     F     Am  G    Am(once)     G(once)           C(once) 
   Ooooh Oooooooooh if it's the last thing that I do 


Intro:

e|-----0-------------------------------0---------------------------|
B|-------------1---------------1---------------1---------------1---|
G|-----------------------------------------------------------------|
D|---------------------0h2-----------------------------0h2---------|
A|-3-------3-------3-------3-------3-------3-------3-------3-------|
E|-----------------------------------------------------------------|


Verse 3(you can either strum it or play it like first two, 
        or both if 2 guitars are playing):

   C
   I've seen my share of misery, but I've never felt a cut so deep 
   F
   All I remember is what I wish I could forget 
   C
   And every single thing I do, I'm gonna make it up to you 
   F
   It might be crazy but I won't give up just yet 


Pre-Chorus(same thing like in Verse 3):

G           Am             F                             C  G
    All my life you're the one thing that's always been real 


Chorus:

     F     Am             C                             G
   Ooooh ooooh I'm gonna follow my heart right back to you 
     F     Am             C                           G
   Ooooh Ooooh you're the one thing I can't stand to lose 
     F     Am            C                             G
   Ooooh Ooooh I'm gonna follow my heart right back to you 
     F     Am  G    Am(once)     G(once)           Am
   Ooooh Oooooooooh if it's the last thing that I do 

   [Am, F, C, G] x2

     F(1)  Am(once)       C                             G
   Ooooh ooooh I'm gonna follow my heart right back to you 
     F     Am             C                           G
   Ooooh Ooooh you're the one thing I can't stand to lose 
     F     Am            C                             G
   Ooooh Ooooh I'm gonna follow my heart right back to you 
     F     Am  G    Am(once)     G(once)           C(once) 
   Ooooh Oooooooooh if it's the last thing that I do 


Outro:

e|-----0-------------------------------0---------------------------|
B|-------------1---------------1---------------1---------------1---|
G|-----------------------------------------------------------------|
D|---------------------0h2-----------------------------0h2---------|
A|-3-------3-------3-------3-------3-------3-------3-------3-------|
E|-----------------------------------------------------------------|

e|-----0-------------------------------0---------------------------0------|
B|-------------1---------------1---------------1---------------1---1------|
G|---------------------0h2-----------------------------0h2---------0------|
D|-3-------3-------3-------3-------3-------3-------3-------3-------2------|
A|-----------------------------------------------------------------3------|
E|------------------------------------------------------------------------|
            
Submit corrections

↑ Back to top | Tablatures and chords for acoustic guitar and electric guitar, ukulele, drums are parodies/interpretations of the original songs. You may use it for private study, scholarship, research or language learning purposes only