» » »

Wilco - Im A Wheel Tabs

Artists:  A B C D E F G H I J K L M N O P Q R S T U V W X Y Z # 

Im A Wheel Tabs

(ver. 1) Click to play this song!
Wilco
 Rating:
4/5 (4 votes)

 Im A Wheel lessons Tabs too difficult? Try these video lessons and learn fast
 
                This tab is primarily what Jeff plays, although I've thrown in some of the 
embellishments Nels and Pat play as well. Enjoi!

Tuning: Drop D

Capo on 2nd Fret (2nd fret notes are open)

Intro/Verse:

E|----------------------------|
B|----------------------------|
G|----------------------------|
D|----------------------------|
A|--5/7-7-9-9-7-/14-14-14-12--|
D|--5/7-7-7-7-7-/12-12-12-12--|

End of Verse:

E|-------------------------------|
B|-------------------------------|
G|-------------------------------|
D|--77777777---------------------|
A|--77777777---------------------|
D|--77777777-2345432-------------|

Chorus: (Strums are approximate)

E|-----------------------------------2-2--|
B|-----------------------------------1-1--|
G|-----------------------------------2-2--|
D|--2------12------7-8-9--10-11-12---0-0--|
A|--2-x16--12-x16--7-8-9--10-11-12--------|
D|--2------12------7-8-9--10-11-12--------|

Bridge: (Listen to timing of chords, the G chord is played longer the first time through 
the bridge)

E|---------------------------------------|
B|---------------------------------------|
G|---------------------------------------|
D|--3-----5----6-6-----------------------|
A|--3-x12-5-x8-6-6-/7-7-9-9-7-7-7-9-9-7--|
D|--3-----5----6-6-/7-7-7-7-7-7-7-7-7-7--|

Last Verse Lead: (Any A note(s) will do)

E|--------------|
B|--------------|
G|--------------|
D|--7777777777--|
A|--------------|
D|--------------|

Order is pretty self-explanatory
            
Submit corrections


        Im A Wheel lessons Hard to play? Try these video lessons and learn fast Im A Wheel lessons
        
↑ Back to top | Tablatures and chords for acoustic guitar and electric guitar, ukulele, drums are parodies/interpretations of the original songs. You may use it for private study, scholarship, research or language learning purposes only