» » »

Wilco - I Got You At The End Of The Century Tabs

Artists:  A B C D E F G H I J K L M N O P Q R S T U V W X Y Z # 

I Got You At The End Of The Century Tabs

(ver. 1) Click to play this song!
Wilco
 Rating:
4.3/5 (20 votes)

 I Got You At The End Of The Century  lessons Tabs too difficult? Try these video lessons and learn fast
 
                [Intro]

e|---3--3---5~~~~~~~~~----5--5---5~~~~~~~~---|
B|---3--3---5~~~~~~~~~----7--7---5~~~~~~~~---|
G|---4--4---6~~~~~~~~~----7--7---6~~~~~~~~---|
D|---5--5---7~~~~~~~~~----7--7---7~~~~~~~~---|
A|---5--5---7~~~~~~~~~----5--5---7~~~~~~~~---|
E|---3--3---5~~~~~~~~~-5--5--5---5~~~~~~~~---|
               (Phone Dialing...)

Play Intro Riff 4x

at third Intro Riff, another guitar plays this:

e|---3--3---5-----------------5--5---5-------------|
B|---3--3---5-------5~~~------7--7---5--5-----5~~~-|
G|---4--4---6---4h6-----------------------4h6------|
D|-------------------------------------------------|
A|-------------------------------------------------|
E|-------------------------------------------------|

e|---5--5---5------------------5--5---5--------------|
B|---8--8---5-------5~~~-------7--7---5---5-----5~~~-|
G|--------------4h6-------------------------4h6------|
D|---------------------------------------------------|
A|---------------------------------------------------|
E|---------------------------------------------------|


[Verse 1]
A                              D
I got you and it's all I need
A                              D
I got you and it's all I need
F#m
I got you and it's all I need
F           F/E  F  F/E  F
I got you

[Chorus 1]
A
I got you and I still believe
E
That you're all that I'll ever need
     A          D
It's you
A         D
All


[Verse 2]
A                               D
All the way back in the seventies
A                         D
You were my little TV queen
A                                 D
Your Tarzan and your friend Janine
A          D
I got you


[Chorus]
A
I got you and I still believe
E
That you're all that I'll ever need
     A          D
It's you
A         D
All


[Solo]
   A                           F#m
e|-5-------5------5~-5~-5~-5~--2--2------------------------|
B|-7b8b7---5h7p5--5~-5~-5~-5~--2--2------------------------|
G|----------------------------------4p2---2----------------|
D|--------------------------------------4----4p2---2-------|
A|-----------------------------------------------4---4-3-2-|
E|---------------------------------------------------------|

   F                                               A              C#m
e|-------------------------------------------------------------------|
B|-------------------------------------------------------------------|
G|-----------------------------------------------------6-6---6-7-8-9-|
D|-3--2p0-3--2p0-3--2p0-3--2p0-3--2p0-3--2p0-3--2--0/7-----7---------|
A|-------------------------------------------------------------------|
E|-------------------------------------------------------------------|

       Bm     E            A             C#m       Bm
e|--------------7------------5-5---5-7-8-9~----9-8-7~-|
B|-----------/9---9-7---------------------------------|
G|-9-8-7~~------------9----6-----6-----------9--------|
D|----------------------------------------------------|
A|----------------------------------------------------|
E|----------------------------------------------------|

   E
e|-----7-------------12------------------|
B|-7b9---9b7---12b14----14b12-10--10~~~~-|
G|---------------------------------------|
D|---------------------------------------|
A|---------------------------------------|
E|---------------------------------------|


[Verse 3]
A                         D
It's the end of the century
A                        D
I can't think of anything
A           D
Except you


[Chorus 2]
A
It's the end of the century
E
And I can't think of anything
    A     D
But you
A     D
Oh
A     D
All
A     D
I
A     D   A      D
Neeeeeeeeeeeeeeed


[Outro]
A        D
A        D
A        G
A

let ring for a while, then play:

(Outro Riff):
e|-5-----------5-|
B|-5--7--5--7--5-|
G|----7--6--7----|
D|---------------|
A|---------------|
E|---------------|            
Submit corrections


        I Got You At The End Of The Century  lessons Hard to play? Try these video lessons and learn fast I Got You At The End Of The Century  lessons
        
↑ Back to top | Tablatures and chords for acoustic guitar and electric guitar, ukulele, drums are parodies/interpretations of the original songs. You may use it for private study, scholarship, research or language learning purposes only