» » »

Wilco - California Stars Tabs

Artists:  A B C D E F G H I J K L M N O P Q R S T U V W X Y Z # 

California Stars Tabs

(ver. 1) Click to play this song!
Wilco
 Rating:
4.4/5 (8 votes)

 California Stars lessons Tabs too difficult? Try these video lessons and learn fast
 
                Intro


E||---------------------------------|---------------------------------|
B||---------------------0-------2---|---------------------------------|
G||-2-------2-----------------------|---------2-----------2-----------|
D||-2-------2-----------------------|---------2-----------2-----------|
A||-0-----------0---0---------------|-0-----------0---0---------------|
D||---------------------------------|---------------------------------|
    o   .   x   .   o   .   x   .     o   .   x   .   o   .   x   .   


E||---------------------------------|---------------------------------|
B||---------------------0---2-------|-3-p-2---0-----------------------|
G||-1-------1-----------------------|-1-------1-----------2---2---2---|
D||-2-------2-----------------------|---------2-----------------------|
A||-2-------2-----------------------|---------------------------------|
D||-2-----------2---2---------------|-2-----------2---2---------------|
    o   .   x   .   o   .   x   .     o   .   x   .   o   .   x   .   


E||---------------------------------|---------------------------------|
B||-------------------------0-------|-2-p-0---------------------------|
G||-2-------2-----------2-----------|-2-------2-----------2---2---2---|
D||-0-------0-----------0-----------|-0-------0-----------0---0---0---|
A||-0-------0-----------0-----------|---------0-----------0---0---0---|
D||-0-----------0---0---------------|-0-----------0---0---------------|
    o   .   x   .   o   .   x   .     o   .   x   .   o   .   x   .   


E||---------------------------------|---------------------------------|
B||-2-------2-----------2---2---2---|---------2-------------------0---|
G||-2-------2-----------2---2---2---|---------2-----------2---2-------|
D||-2-------2-----------2---2---2---|---------2-----------------------|
A||-0-----------0---0---------------|-0-----------0---0---------------|
D||---------------------------------|---------------------------------|
    o   .   x   .   o   .   x   .     o   .   x   .   o   .   x   .   
                                      
                                                          I'd like to

E||---------------------------------|---------------------------------|
B||-------------------------2-h-3---|-2-p-0-------------------0-------|
G||-2-------------------2-----------|-2-------2---2-------2-------1---|
D||-2-------------------------------|-2-------------------------------|
A||-0-----------0---0---------------|-0-----------0---0---------------|
D||---------------------------------|---------------------------------|
    o   .   x   .   o   .   x   .     o   .   x   .   o   .   x   .   

    rest                   my heavy      head tonight on a bed

E||---------------------------------|---------------------------------|
B||-------------------------0---2---|-3-p-2---0---0-------------------|
G||---------------------1-----------|-1-------------------2---2---2---|
D||-2-------------------------------|---------------------------------|
A||-2-------------------------------|---------------------------------|
D||-2-----------2---2---------------|-2-----------2---2---------------|
    o   .   x   .   o   .   x   .     o   .   x   .   o   .   x   .   
  
                            of Cali  -fornia stars         I'd like to   

E||---------------------------------|---------------------------------|
B||-------------------------0-------|-2-p-0-------------------0-------|
G||-2-------2-----------2-------2---|-2-------2---2-------2-------2---|
D||-0-------0-----------------------|---------------------------------|
A||---------------------------------|---------------------------------|
D||-0-----------0---0---------------|-0-----------0---0---------------|
    o   .   x   .   o   .   x   .     o   .   x   .   o   .   x   .   
    
    lay     my             weary        bones tonight on a bed

E||---------------------------------|---------------------------------|
B||---------2---------------2---3---|-2-p-0-----------------------0---|
G||-2-------2-----------2-----------|-2-------2---2-------2---2-------|
D||-2-------2-----------------------|-2-------------------------------|
A||-0-----------0---0---------------|-0-----------0---0---------------|
D||---------------------------------|---------------------------------|
    o   .   x   .   o   .   x   .     o   .   x   .   o   .   x   .   

                       of Cali        -fornia stars       I'd love to 

E||---------------------------------|---------------------------------|
B||---------2---------------2---3---|-2-p-0-----------------------0---|
G||-2-------2-----------2-----------|-2-----------2-------2---2-------|
D||-2-------2-----------------------|-2-------------------------------|
A||-0-----------0---0---------------|-0-----------0---0---------------|
D||---------------------------------|---------------------------------|
    o   .   x   .   o   .   x   .     o   .   x   .   o   .   x   .   

   feel                 your hand     touching    mine    and tell me

E||---------------------------------|---------------------------------|
B||---------------------0---0---2---|-3-p-2-------0-------------------|
G||-1-------------------------------|-1-----------------------2-------|
D||-2-------------------------------|-----------------------------4---|
A||-2-------------------------------|---------------------------------|
D||-2-----------2---2---------------|-2-----------2---2---------------|
    o   .   x   .   o   .   x   .     o   .   x   .   o   .   x   .   

    why                 I must keep   working on               Yes i'd 

E||---------------------------------|---------------------------------|
B||---------------------------------|-2-p-0---0---------------0-------|
G||-2---2-------2---------------2---|-2-----------2---2---2-------2---|
D||-0-------------------------------|-----------------0---------------|
A||---------------------------------|---------------------------------|
D||-0-----------0---0---------------|-0-----------0---0---------------|
    o   .   x   .   o   .   x   .     o   .   x   .   o   .   x   .   

    give my life               to     lay my head tonight on a bed

E||---------------------------------|---------------------------------|
B||---------2---------------2---3---|-2-p-0---------------------------|
G||-2-------2-----------2-----------|-2-------2---2-------------------|
D||-2-------2-----------------------|-2-------------------------------|
A||-0-----------0---0---------------|-0-----------0---0---------------|
D||---------------------------------|---------------------------------|
    o   .   x   .   o   .   x   .     o   .   x   .   o   .   x   .   

                         of Cali     -fornia stars    

E||---------------------------------|---------------------------------|
B||---------------------0-------2---|---------------------------------|
G||-2-------2-----------------------|---------2-----------2-----------|
D||-2-------2-----------------------|---------2-----------2-----------|
A||-0-----------0---0---------------|-0-----------0---0---------------|
D||---------------------------------|---------------------------------|
    o   .   x   .   o   .   x   .     o   .   x   .   o   .   x   .   


E||---------------------------------|---------------------------------|
B||---------------------0---2-------|-3-p-2---0-----------------------|
G||-1-------1-----------------------|-1-------1-----------2---2---2---|
D||-2-------2-----------------------|---------2-----------------------|
A||-2-------2-----------------------|---------------------------------|
D||-2-----------2---2---------------|-2-----------2---2---------------|
    o   .   x   .   o   .   x   .     o   .   x   .   o   .   x   .   


E||---------------------------------|---------------------------------|
B||-------------------------0-------|-2-p-0---------------------------|
G||-2-------2-----------2-----------|-2-------2-----------2---2---2---|
D||-0-------0-----------0-----------|-0-------0-----------0---0---0---|
A||-0-------0-----------0-----------|---------0-----------0---0---0---|
D||-0-----------0---0---------------|-0-----------0---0---------------|
    o   .   x   .   o   .   x   .     o   .   x   .   o   .   x   .   


E||---------------------------------|---------------------------------|
B||-2-------2-----------2---2---2---|---------2-------------------0---|
G||-2-------2-----------2---2---2---|---------2-----------2---2-------|
D||-2-------2-----------2---2---2---|---------2-----------------------|
A||-0-----------0---0---------------|-0-----------0---0---------------|
D||---------------------------------|---------------------------------|
    o   .   x   .   o   .   x   .     o   .   x   .   o   .   x   .   
                                      
                                                          I'd like to

E||---------------------------------|---------------------------------|
B||-------------------------2-h-3---|-2-p-0-------------------0-------|
G||-2-------------------2-----------|-2-------2---2-------2-------1---|
D||-2-------------------------------|-2-------------------------------|
A||-0-----------0---0---------------|-0-----------0---0---------------|
D||---------------------------------|---------------------------------|
    o   .   x   .   o   .   x   .     o   .   x   .   o   .   x   .   

    dream                   my troubles      all away on a bed

E||---------------------------------|---------------------------------|
B||-------------------------0---2---|-3-p-2---0---0-------------------|
G||---------------------1-----------|-1-------------------2---2---2---|
D||-2-------------------------------|---------------------------------|
A||-2-------------------------------|---------------------------------|
D||-2-----------2---2---------------|-2-----------2---2---------------|
    o   .   x   .   o   .   x   .     o   .   x   .   o   .   x   .   
  
                            of Cali  -fornia stars         

E||---------------------------------|---------------------------------|
B||-------------------------0-------|-2-h-3---2---0-----------0-------|
G||-2---2---2-------2---2-------2---|-2---------------2---2-------2---|
D||-0-------0---4-------------------|---------------------------------|
A||---------------------------------|---------------------------------|
D||-0-----------0---0---------------|-0-----------0---0---------------|
    o   .   x   .   o   .   x   .     o   .   x   .   o   .   x   .   
    
    jump up from my star-bed          make another day underneath

E||---------------------------------|---------------------------------|
B||---------2---------------2---3---|-2-p-0-----------------------0---|
G||-2-------2-----------2-----------|-2-------2---2-------2---2-------|
D||-2-------2-----------------------|-2-------------------------------|
A||-0-----------0---0---------------|-0-----------0---0---------------|
D||---------------------------------|---------------------------------|
    o   .   x   .   o   .   x   .     o   .   x   .   o   .   x   .   

                       my Cali        -fornia stars       They hang like

E||---------------------------------|---------------------------------|
B||---------2---------------2---3---|-2-p-0-----------------------0---|
G||-2-------2-----------2-----------|-2-------2---2-------2---2-------|
D||-2-------2-----------------------|-2-------------------------------|
A||-0-----------0---0---------------|-0-----------0---0---------------|
D||---------------------------------|---------------------------------|
    o   .   x   .   o   .   x   .     o   .   x   .   o   .   x   .   

   grapes                 on          vines that shine and warm the

E||---------------------------------|---------------------------------|
B||---------------------0---0---2---|-3-p-2-------0-------------------|
G||-1---1---1-----------------------|-1-----------------------2-------|
D||-2-------------------------------|-----------------------------4---|
A||-2-------------------------------|---------------------------------|
D||-2-----------2---2---------------|-2-----------2---2---------------|
    o   .   x   .   o   .   x   .     o   .   x   .   o   .   x   .   

    lover's glass           like      friendly wine           So I'd 

E||---------------------------------|---------------------------------|
B||---------------------------------|-2-p-0---0---------------0-------|
G||-2---2-------2-----------2---2---|-2-----------2---2---2-------2---|
D||-0-------------------------------|-----------------0---------------|
A||---------------------------------|---------------------------------|
D||-0-----------0---0---------------|-0-----------0---0---------------|
    o   .   x   .   o   .   x   .     o   .   x   .   o   .   x   .   

    give this    world      just to   dream a dream with you on our bed

E||---------------------------------|---------------------------------|
B||---------2---------------2---3---|-2-p-0---------------------------|
G||-2-------2-----------2-----------|-2-------2---2-------------------|
D||-2-------2-----------------------|-2-------------------------------|
A||-0-----------0---0---------------|-0-----------0---0---------------|
D||---------------------------------|---------------------------------|
    o   .   x   .   o   .   x   .     o   .   x   .   o   .   x   .   

                         of Cali     -fornia stars    

E||---------------------------------|---------------------------------|
B||---------------------0-------2---|---------------------------------|
G||-2-------2-----------------------|---------2-----------2-----------|
D||-2-------2-----------------------|---------2-----------2-----------|
A||-0-----------0---0---------------|-0-----------0---0---------------|
D||---------------------------------|---------------------------------|
    o   .   x   .   o   .   x   .     o   .   x   .   o   .   x   .   


E||---------------------------------|---------------------------------|
B||---------------------0---2-------|-3-p-2---0-----------------------|
G||-1-------1-----------------------|-1-------1-----------2---2---2---|
D||-2-------2-----------------------|---------2-----------------------|
A||-2-------2-----------------------|---------------------------------|
D||-2-----------2---2---------------|-2-----------2---2---------------|
    o   .   x   .   o   .   x   .     o   .   x   .   o   .   x   .   


E||---------------------------------|---------------------------------|
B||-------------------------0-------|-2-p-0---------------------------|
G||-2-------2-----------2-----------|-2-------2-----------2---2---2---|
D||-0-------0-----------0-----------|-0-------0-----------0---0---0---|
A||-0-------0-----------0-----------|---------0-----------0---0---0---|
D||-0-----------0---0---------------|-0-----------0---0---------------|
    o   .   x   .   o   .   x   .     o   .   x   .   o   .   x   .   


E||---------------------------------|
B||-2-------------------------------|
G||-2-------------------------------|
D||-2-------------------------------|
A||-0-------------------------------|
D||---------------------------------|
    o   .   x   .   o   .   x   .            
Submit corrections


        California Stars lessons Hard to play? Try these video lessons and learn fast California Stars lessons
        
↑ Back to top | Tablatures and chords for acoustic guitar and electric guitar, ukulele, drums are parodies/interpretations of the original songs. You may use it for private study, scholarship, research or language learning purposes only