Home » W » Widespread Panic »

Widespread Panic - Airplane Bass

Artists:  A B C D E F G H I J K L M N O P Q R S T U V W X Y Z # 

Airplane Bass

(ver. 2) Click to play this song!
Widespread Panic
Verse/Intro:

--------------------------|
--------------------------|
--------1--3--------1--3--|
--1--3--------1--3--------|

Chorus:

-------------------------|
-------------------------|
-----3----------3--------|
--1-----3----3-----3--1--|

"That I should be leavin' ohhh -- ohhh:"

-------------------------------------------|
-------------------------------------------|
-------------------------------------------|
--4444444-3-1111111-3-4444444-3-1111111-3--|


Solo:

-----------------------------------|
---------------11--------------11--|
--111111111111----111111111111-----|
-----------------------------------|

"Well I've gotta feelin' ... that I should be leavin' ohh" (AFTER SOLO):

-----------------------------------|
---------------33--------------33--|
--333333333333----333333333333-----|
-----------------------------------|            
Submit corrections

↑ Back to top | Tablatures and chords for acoustic guitar and electric guitar, ukulele, drums are parodies/interpretations of the original songs. You may use it for private study, scholarship, research or language learning purposes only