Home » W » Widespread Panic »

Widespread Panic - Airplane Bass

Artists:  A B C D E F G H I J K L M N O P Q R S T U V W X Y Z # 

Airplane Bass

(ver. 1) Click to play this song!
Widespread Panic
Verse/Intro:

--------------------------|
--------------------------|
--------1--3--------1--3--|
--1--3--------1--3--------|

Chorus:

-----------------------------|
-----------------------------|
-----3-----3--------3-----3--|
--1-----3-----1--1-----3-----|

Chorus 2:

-----------|
-----------|
-----------|
--1--3--3--|

Solo:

--------------------------------------|
-----1--1-----------------1--1--------|
--1--------1-----------1--------1-----|
--------------4--4--1--------------4--|

"I've got a feeling that I should be leaving" (Repeat this a few times):

-------------|
-------------|
----3--------|
--3----3--1--|            
Submit corrections

↑ Back to top | Tablatures and chords for acoustic guitar and electric guitar, ukulele, drums are parodies/interpretations of the original songs. You may use it for private study, scholarship, research or language learning purposes only