Home » W » Wicked »

Wicked - The Wizard And I Bass

Artists:  A B C D E F G H I J K L M N O P Q R S T U V W X Y Z # 

The Wizard And I Bass

(ver. 1) Click to play this song!
Wicked
(~0:59)
   [SUPRESS]  [HELP]      if [I] make         so I'll make...
G|---------------------------------------------------------------------------|
D|---------------------------------------------------------------------------|
A|--------------------4---------6----6---------------------------------------|
E|----[4]------[4]--4------6-[3]---------------2-----------------------------|

  [GOOD]                            x2_ and then I'll       since birth
G|------------------------------------|--------------------------------------|
D|-[10]--10--10-------10--10--10------|--10--9--7------------------5---------|
A|------------------------------------|------------------5-------7-----------|
E|------------------------------------|--------------------------------------|
]
  [ALL] his          [BLINDED]            [DUMB]      [MUNCHKINS]   [MINDED]
G|-[17]--17--17----17--12-------------10---[12]-----------[10]-----10-[12]---|
D|----------------------[14]--14-14----------------13-12-10------12----------|
A|---------------------------------------------------------------------------|
E|---------------------------------------------------------------------------|

 he'll[SAY] to me        [ARE]   [GIRL]      re[LY]        be[GIN]
G|----[14]---------------12-------[14]---------[12]------7-9--[10]-----------|
D|---14------12----12-----[14]---14------12---12------10---------------------|
A|-------------------14------------------------------------------------------|
E|---------------------------------------------------------------------------|

 and [I]                X2_     [WIZARD]        [NO] one    [STRANGE]
G|------------------------|--------------------------------------------------|
D|------------------------|--------------------------------------------------|
A|---[3]-5--------3--5----|---3--2-[0]-0-0---0-3-[5]---5--------------5--5---|
E|--3------3----3------3--|--3----------------------------0-2-[3]--3---------|

no [FATHER]     [SISTER]              [ALL] of Oz      [WIZARD]
G|------------------------------------------------5h7-5-----3----------------|
D|----------------------------2-2-0--------1-3----------------3--------------|
A|--[3]--5--------[3]--2-----2------2---[1]-----3--------[1]----1-3---3------|
E|--------3--3-3---------0---------------------------------------------------|

   [GIFT]      [MAYBE]      [WE] are        and [I]
G|---------------------------------------------------------------------------|
D|-3h[5]-------------------------0-2---3--------[7]--------7-----------------|
A|------5-----7--[3]-5--5----[3]---------------------------------------------|
E|--------7-7------------3---------------------------------------------------|

  [ONE] day       [FOLKS] here       [FIX]ated        would [IT] be alright
G|-[7]--6--7--6--------------------------------------------------------------|
D|--------------3-------1--3----1---------1---1-3---1------------------------|
A|------------------[3]-------3---1---[3]---3-----3---1------[4]--3---1---3--|
E|---------------------------------------------------------------------------|

of [COURSE]  all [RIGHT]    [WHAT] a     and [I]    yes, [WHAT] a pair
G|---------------------------------------------------------------------------|
D|-3h[5]------------------------0-2---3----------------------0-2--3----------|
A|------5-----7--[3]-5--5----[3]-----------------5--------[3]----------------|
E|--------7-7------------3-------------------[5]----3------------------------|

            [IS]  un[LI]mited  [VISION] almost   [CRAZY]  [BUT] i swear
G|-----------[8]---------------------------------6-------------------7-------|
D|-------------------------4-----[9]-8--------------------------7--7---------|
A|--2---2-----------[2]-4--------------6--2--------[4]-----[0]---5-----------|
E|---------------------------------------------------------------------------|

   [ME]
G|---------------------------------5---------------------------|
D|--[8]--8-----5-6-8--8-------5--5----2-0----------------------|
A|----------------------------------------3--------3--3--------|
E|-------------------------------------------------------------|

 [STAND] there    [FELT]                 [HAPPY]    [MELT]
G|------------------------------------------------0------------16\-----------|
D|-----------------[4]--------------------------2---2-[4]----/16-------------|
A|-[2]-4------2--4--------2--2-0-----------[4]-------------------------------|
E|--------2---------------------2-3-4--4-------------------------------------|

    So it will            [IN] such     [SEE] me       of [OZ]'s   [TEAM] 
G|----------------------------6-8------9--------------10---------------------|
D|--3h5----------6---4-----[9]-------9------------------10-------------5-----|
A|------4-----6----4---------------7--------5-7---8--8--------5--7-------5---|
E|--------6-6----------------------------[8]--------------[8]-------[4]----3-|

and [I]                                                           the end
G|---------------------------------------------------------------------------|
D|----------------------3----------------------------------------------------|
A|--[3]--5-------------------4----2----------------------------------3-------|
E|-----------3---5-----------------------------------------------------------|            
Submit corrections

↑ Back to top | Tablatures and chords for acoustic guitar and electric guitar, ukulele, drums are parodies/interpretations of the original songs. You may use it for private study, scholarship, research or language learning purposes only