» » »

Why Dont We - Hooked Tabs

Artists:  A B C D E F G H I J K L M N O P Q R S T U V W X Y Z # 

Hooked Tabs

(ver. 1) Click to play this song!
Why Dont We
 Rating:
4.3/5 (21 vote)

 Hooked lessons Tabs too difficult? Try these video lessons and learn fast
 
                [Intro: Jack Avery]

Ooh (you got a bad-, you got-, you-)
[strum]
    C#        Fm        A#m      Fm
e|--4---------1---------6---------1--------|
B|--6---------1---------6---------1--------|
G|--6---------1---------6---------1--------|
D|--6---------3---------8---------3--------|
A|--4---------3---------8---------3--------|
E|------------1---------6---------1--------|

[Chorus: Jack Avery & All]

You've got a bad reputation in my neighborhood
    C#     Fm    A#m   Fm
e|--4--4---1--1--6--6--1--1--------|
B|--6--6---1--1--6--6--1--1--------|
G|--6--6---1--1--6--6--1--1--------|
D|--6--6---3--3--8--8--3--3--------|
A|--4--4---3--3--8--8--3--3--------|
E|---------1--1--6--6--1--1--------|

You drive me mad with temptation 'cause it tastes so good
    C#     Fm    A#m   Fm
e|--4--4---1--1--6--6--1--1--------|
B|--6--6---1--1--6--6--1--1--------|
G|--6--6---1--1--6--6--1--1--------|
D|--6--6---3--3--8--8--3--3--------|
A|--4--4---3--3--8--8--3--3--------|
E|---------1--1--6--6--1--1--------|

You know I wouldn't walk away even if I could
    C#     Fm    A#m   Fm
e|--4--4---1--1--6--6--1--1--------|
B|--6--6---1--1--6--6--1--1--------|
G|--6--6---1--1--6--6--1--1--------|
D|--6--6---3--3--8--8--3--3--------|
A|--4--4---3--3--8--8--3--3--------|
E|---------1--1--6--6--1--1--------|

It took one night, one try, ayy
    C#     Fm       A#m   Fm [let it ring-----]
e|--4--4---1--1--x--6--6--1----------|
B|--6--6---1--1--x--6--6--1----------|
G|--6--6---1--1--x--6--6--1----------|
D|--6--6---3--3--x--8--8--3----------|
A|--4--4---3--3--x--8--8--3----------|
E|---------1--1--x--6--6--1----------|

Damn, I'm hooked (oh)
{Fm rings on}

[Verse 1: Daniel Seavey]

You were there when I was low, you held me high
    C#          Fm        A#m       Fm
e|-x----------x----------x---------x-------------|
B|-x----------x----------x---------x-------------|
G|-x----------x----------x---------x-------------|
D|-x----------x----------x---------x-------------|
A|-x-4--4--4--x----------x---------x-------------|
E|-x----------x--1--1--1-x-6--6--6-x-1--1--1-----|
And baby when you take control, we can go all night
    C#          Fm        A#m       Fm
e|-x----------x----------x---------x-------------|
B|-x----------x----------x---------x-------------|
G|-x----------x----------x---------x-------------|
D|-x----------x----------x---------x-------------|
A|-x-4--4--4--x----------x---------x-------------|
E|-x----------x--1--1--1-x-6--6--6-x-1--1--1-----|
Every single place we go, you start a fight
    C#          Fm        A#m       Fm
    C#          Fm        A#m       Fm
e|-x----------x----------x---------x-------------|
B|-x----------x----------x---------x-------------|
G|-x----------x----------x---------x-------------|
D|-x----------x----------x---------x-------------|
A|-x-4--4--4--x----------x---------x-------------|
E|-x----------x--1--1--1-x-6--6--6-x-1--1--1-----|
But then you kiss my neck and take a bite
    C#          Fm        A#m       Fm
e|-x----------x----------x---------x-------------|
B|-x----------x----------x---------x-------------|
G|-x----------x----------x---------x-------------|
D|-x----------x----------x---------x-------------|
A|-x-4--4--4--x----------x---------x-------------|
E|-x----------x--1--1--1-x-6--6--6-x-1--1--1-----|

[Pre-Chorus: Zach Herron]

Everybody says I'm sleeping with the enemy
    C#          Fm        A#m       Fm
e|-x----------x----------x---------x-------------|
B|-x----------x----------x---------x-------------|
G|-x----------x----------x---------x-------------|
D|-x----------x----------x---------x-------------|
A|-x-4--4--4--x----------x---------x-------------|
E|-x----------x--1--1--1-x-6--6--6-x-1--1--1-----|

I don't even care if you're gonna be the death of me, me, me
    C#          Fm        A#m       Fm
e|-x----------x----------x---------x---------------|
B|-x----------x----------x---------x---------------|
G|-x----------x----------x---------x---------------|
D|-x----------x----------x---------x---------------|
A|-x-4--4--4--x----------x---------x---------------|
E|-x----------x--1--1--1-x-6--6--6-x-1--1-----6\---|

[Chorus: Jack Avery & All]

You've got a bad reputation in my neighborhood
    C#     Fm    A#m   Fm
e|--4--4---1--1--6--6--1--1--------|
B|--6--6---1--1--6--6--1--1--------|
G|--6--6---1--1--6--6--1--1--------|
D|--6--6---3--3--8--8--3--3--------|
A|--4--4---3--3--8--8--3--3--------|
E|---------1--1--6--6--1--1--------|

You drive me mad with temptation 'cause it tastes so good
    C#     Fm    A#m   Fm
e|--4--4---1--1--6--6--1--1--------|
B|--6--6---1--1--6--6--1--1--------|
G|--6--6---1--1--6--6--1--1--------|
D|--6--6---3--3--8--8--3--3--------|
A|--4--4---3--3--8--8--3--3--------|
E|---------1--1--6--6--1--1--------|

You know I wouldn't walk away even if I could
    C#     Fm    A#m   Fm
e|--4--4---1--1--6--6--1--1--------|
B|--6--6---1--1--6--6--1--1--------|
G|--6--6---1--1--6--6--1--1--------|
D|--6--6---3--3--8--8--3--3--------|
A|--4--4---3--3--8--8--3--3--------|
E|---------1--1--6--6--1--1--------|

It took one night, one try, ayy
    C#     Fm       A#m   Fm [let it ring-----]
e|--4--4---1--1--x--6--6--1----------|
B|--6--6---1--1--x--6--6--1----------|
G|--6--6---1--1--x--6--6--1----------|
D|--6--6---3--3--x--8--8--3----------|
A|--4--4---3--3--x--8--8--3----------|
E|---------1--1--6--6--1--1----------|

Damn, I'm hooked (oh)
 {Fm rings on}

[Post-Chorus: All & Daniel Seavey]

Ooh, I'm hooked
    C#          Fm        A#m       C#
e|-x----------x----------x---------x----------------|
B|-x----------x----------x---------x----------------|
G|-x----------x----------x---------x----------------|
D|-x----------x----------x---------x----------------|
A|-x-4--4--4--x----------x---------x----------------|
E|-x----------x-1--1--1--x-6--6--6-x-4--4--4--------|

Ooh, I'm hooked (brrr- ah, pa, pa)
    C#          Fm        A#m       C#
e|-x----------x----------x---------x----------------|
B|-x----------x----------x---------x----------------|
G|-x----------x----------x---------x----------------|
D|-x----------x----------x---------x----------------|
A|-x-4--4--4--x----------x---------x----------------|
E|-x----------x-1--1--1--x-6--6--6-x-4--4--4--------|

 
[Verse 2: Jonah Marais & All]

Ooh, I know that I shouldn't touch but you twist my heart 
    C#          Fm        A#m       C#
e|-x----------x----------x---------x----------------|
B|-x----------x----------x---------x----------------|
G|-x----------x----------x---------x----------------|
D|-x----------x----------x---------x----------------|
A|-x-4--4--4--x----------x---------x----------------|
E|-x----------x-1--1--1--x-6--6--6-x-4--4--4--------|

'Cause I can never get enough once the feeling starts
    C#          Fm        A#m       C#
e|-x----------x----------x---------x----------------|
B|-x----------x----------x---------x----------------|
G|-x----------x----------x---------x----------------|
D|-x----------x----------x---------x----------------|
A|-x-4--4--4--x----------x---------x----------------|
E|-x----------x-1--1--1--x-6--6--6-x-4--4--4--------|

Baby, I'm the gasoline and your kiss is the spark
    C#          Fm        A#m       C#
e|-x----------x----------x---------x----------------|
B|-x----------x----------x---------x----------------|
G|-x----------x----------x---------x----------------|
D|-x----------x----------x---------x----------------|
A|-x-4--4--4--x----------x---------x----------------|
E|-x----------x-1--1--1--x-6--6--6-x-4--4--4--------|

But then you take the wheel and crash my car
   C#          Fm        A#m       C#
e|-x----------x----------x---------x-------------|
B|-x----------x----------x---------x-------------|
G|-x----------x----------x---------x-------------|
D|-x----------x----------x---------x-------------|
A|-x----------x----------x---------x-------------|
E|-x-4--4--4--x--1--1--1-x-6--6--6-x-4--4--4-----|

[Pre-Chorus: Zach Herron]

Everybody says I'm sleeping with the enemy
    C#          Fm        A#m       C#
e|-x----------x----------x---------x----------------|
B|-x----------x----------x---------x----------------|
G|-x----------x----------x---------x----------------|
D|-x----------x----------x---------x----------------|
A|-x-4--4--4--x----------x---------x----------------|
E|-x----------x-1--1--1--x-6--6--6-x-4--4--4--------|

I don't even care if you're gonna be the death of me, me, me
    C#          Fm        A#m       
e|-x----------x----------x---------x-------------|
B|-x----------x----------x---------x-------------|
G|-x----------x----------x---------x-------------|
D|-x----------x----------x---------x-------------|
A|-x----------x----------x---------x-------------|
E|-x-4--4--4--x--1--1--1-x-6--6--6-x----6\-------|

[Chorus: Jack Avery & All]

You've got a bad reputation in my neighborhood
    C#     Fm    A#m   Fm
e|--4--4---1--1--6--6--1--1--------|
B|--6--6---1--1--6--6--1--1--------|
G|--6--6---1--1--6--6--1--1--------|
D|--6--6---3--3--8--8--3--3--------|
A|--4--4---3--3--8--8--3--3--------|
E|---------1--1--6--6--1--1--------|
You drive me mad with temptation 'cause it tastes so good
    C#     Fm    A#m   Fm
e|--4--4---1--1--6--6--1--1--------|
B|--6--6---1--1--6--6--1--1--------|
G|--6--6---1--1--6--6--1--1--------|
D|--6--6---3--3--8--8--3--3--------|
A|--4--4---3--3--8--8--3--3--------|
E|---------1--1--6--6--1--1--------|
You know I wouldn't walk away even if I could
    C#     Fm    A#m   Fm
e|--4--4---1--1--6--6--1--1--------|
B|--6--6---1--1--6--6--1--1--------|
G|--6--6---1--1--6--6--1--1--------|
D|--6--6---3--3--8--8--3--3--------|
A|--4--4---3--3--8--8--3--3--------|
E|---------1--1--6--6--1--1--------|
It took one night, one try, ayy
    C#     Fm       A#m   Fm [let it ring-----]
e|--4--4---1--1--x--6--6--1----------|
B|--6--6---1--1--x--6--6--1----------|
G|--6--6---1--1--x--6--6--1----------|
D|--6--6---3--3--x--8--8--3----------|
A|--4--4---3--3--x--8--8--3----------|
E|---------1--1--x--6--6--1----------|
Damn, I'm hooked (oh)

Damn, I'm hooked
{Fm rings on}

[Post-Chorus: All]

Ooh, I'm hooked
    C#          Fm        A#m       C#
e|-x----------x----------x---------x----------------|
B|-x----------x----------x---------x----------------|
G|-x----------x----------x---------x----------------|
D|-x----------x----------x---------x----------------|
A|-x-4--4--4--x----------x---------x----------------|
E|-x----------x-1--1--1--x-6--6--6-x-4--4--4--------|


Ooh, I'm hooked
    C#          Fm        A#m       C#
e|-x----------x----------x---------x----------------|
B|-x----------x----------x---------x----------------|
G|-x----------x----------x---------x----------------|
D|-x----------x----------x---------x----------------|
A|-x-4--4--4--x----------x---------x----------------|
E|-x----------x-1--1--1--x-6--6--6-x-4--4--4--------|


[Bridge: Corbyn Besson]

You got me under your influence
    Fm          Fm         A#m       A#m
e|-x----------x----------x---------x-------------|
B|-x----------x----------x---------x-------------|
G|-x----------x----------x---------x-------------|
D|-x----------x----------x---------x-------------|
A|-x----------x----------x---------x-------------|
E|-x-1--1--1--x-1--1--1--x-6--6--6-x-6--6--6-----|

I swear I'm never gonna give you up, up, up, up, up, up, up
   Fm          Fm         A#m      
e|-x----------x----------x---------x---------b10-|
B|-x----------x----------x---------x-------------|
G|-x----------x----------x---------x-------------|
D|-x----------x----------x---------x-------------|
A|-x----------x----------x---------x-------------|
E|-x-1--1--1--x-1--1--1--x-6--6--6-x-------------|
 
[Chorus: Jack Avery & All]

You've got a bad reputation in my neighborhood
    C#        Fm    A#m      C# [dead notes are a quick up down]
e|--4--4--x-x-1--1--6--6-x-x--4--4--------|
B|--6--6--x-x-1--1--6--6-x-x--6--6--------|
G|--6--6--x-x-1--1--6--6-x-x--6--6--------|
D|--6--6--x-x-3--3--8--8-x-x--6--6--------|
A|--4--4--x-x-3--3--8--8-x-x--4--4--------|
E|--------x-x-1--1--6--6-x-x--------------|

You drive me mad with temptation 'cause it tastes so good
    C#        Fm    A#m      C# [dead notes are a quick up down]
e|--4--4--x-x-1--1--6--6-x-x--4--4--------|
B|--6--6--x-x-1--1--6--6-x-x--6--6--------|
G|--6--6--x-x-1--1--6--6-x-x--6--6--------|
D|--6--6--x-x-3--3--8--8-x-x--6--6--------|
A|--4--4--x-x-3--3--8--8-x-x--4--4--------|
E|--------x-x-1--1--6--6-x-x--------------|

You know I wouldn't walk away even if I could
    C#        Fm    A#m      C# [dead notes are a quick up down]
e|--4--4--x-x-1--1--6--6-x-x--4--4--------|
B|--6--6--x-x-1--1--6--6-x-x--6--6--------|
G|--6--6--x-x-1--1--6--6-x-x--6--6--------|
D|--6--6--x-x-3--3--8--8-x-x--6--6--------|
A|--4--4--x-x-3--3--8--8-x-x--4--4--------|
E|--------x-x-1--1--6--6-x-x--------------|

It took one night, one try, ayy
    C#     Fm       A#m   Fm [let it ring-----]
e|--4--4---1--1--x--6--6--1----------|
B|--6--6---1--1--x--6--6--1----------|
G|--6--6---1--1--x--6--6--1----------|
D|--6--6---3--3--x--8--8--3----------|
A|--4--4---3--3--x--8--8--3----------|
E|---------1--1--x--6--6--1----------|

Damn, I'm hooked (oh)
{Fm rings on}

[Post-Chorus: All]

Ooh, I'm hooked
    C#          Fm        A#m       C#
e|-x----------x----------x---------x----------------|
B|-x----------x----------x---------x----------------|
G|-x----------x----------x---------x----------------|
D|-x----------x----------x---------x----------------|
A|-x-4--4--4--x----------x---------x----------------|
E|-x----------x-1--1--1--x-6--6--6-x-4--4--4--------|


Ooh, I'm hooked, oh
    C#          Fm        A#m       C# [play then slide]
e|-x----------x----------x---------x----------------|
B|-x----------x----------x---------x----------------|
G|-x----------x----------x---------x----------------|
D|-x----------x----------x---------x----------------|
A|-x-4--4--4--x----------x---------x----------------|
E|-x----------x-1--1--1--x-6--6--6-x-4--4\----------|
            
Submit corrections


        Hooked lessons Hard to play? Try these video lessons and learn fast Hooked lessons
        
↑ Back to top | Tablatures and chords for acoustic guitar and electric guitar, ukulele, drums are parodies/interpretations of the original songs. You may use it for private study, scholarship, research or language learning purposes only