Home » W » White Stripes »

White Stripes - Baby Brother Tabs

Artists:  A B C D E F G H I J K L M N O P Q R S T U V W X Y Z # 

Baby Brother Tabs

(ver. 1) Click to play this song!
White Stripes
 Rating:
4.2/5 (5 votes)
                

Note: I won't bother tabbing all the chord timings, so go ahead and listen to the 
song ;)....thanks!

b    bend less than a half step
n.c. no chords played
p.m. palm muting
T    Tremolo picking


Intro

e---------12b-12b---------12b-12b--|
B---------11b-11b---------11b-11b--|
G--12-12-----------12-12-----------|
D--11-11-----------11-11-----------|
A----------------------------------|
E----------------------------------|

Hey!

G5

Verse 1  P.m. (mainly the whole song is played with a slight palm muting)
G5
My little baby brother used to play down on the floor
G5
But now he's not satisfied to do it anymore
C5
He's got a funny habit and I don't know why
G5 n.c.
He walks around the ceiling now, stepping on the flies


Chorus p.m.
C5                G5
Baby brother, baby brother
           C5
Well he learned to crawl
          D5
On the kitchen wall
         G5
Baby brother 


Verse 2 p.m.
G5
Well just the other day, well-a bless-a my soul
G5
I found him swimming round in the goldfish bowl
C5
Since nobody told him that he hadn't oughta
G5 n.c.
He swam around for hours, with his head underwater


Chorus p.m.
C5                G5
Baby brother, baby brother
          C5 no p.m.        
Well you may swim all you wish
    D5 no p.m.      
But don't eat the fish
        G5 no p.m.
Baby brother


Break
Note: The Solo is played one octave up

e--3-3-3-3---------3-3-3-3-------4-----5-----6-----7------8------|
B------------------------------------------------------------8---|
G----------0-0-0-0---------0-0-0---0-0---0-0---0-0---0-0---0---0-|
D----------------------------------------------------------------|
A----------------------------------------------------------------|
E----------------------------------------------------------------|

           T-------------| 
e-------------------------------13-13b14-13b15-13b15-|
B-13~-13~--13~-13~-13~-13~---13----------------------|
G----------------------------------------------------|
D----------------------------------------------------|
A----------------------------------------------------|
E----------------------------------------------------|

  back to normal octave
e------------------------------------------------------------------|
B-13-13-13-13-11-13--11-11-12-12-12--------------------------------|
G-----------------------------------12--12-12-0--------------------|
D-----------------------------------------------12-12-12-12--12-12-|
A------------------------------------------------------------------|
E------------------------------------------------------------------|

e---------------|
B---------------|
G-10-10-10-10b--|
D----------12b--|
A---------------|
E---------------|

G5 Yeah!

G5 n.c. Yeah  G5 n.c Ah Yeah G5 n.c. Ohh  G5 n.c. Ahh G5 n.c. 

Verse 3
n.c.
Well, my little baby brother, he's a cute little cuss
n.c.
But it's plain to see that he's not one of us
C5 n.c.
Where did we get him? I know you're gonna ask it
G5 n.c.
We found him on the porch in a crazy little basket


Chorus  no palm muting
C5                 G5
Baby brother, baby brother
                C5
Although your hair is blue
             D5
We think the world of you
        G5
Baby brother


Verse 4
         G5 n.c.
Well, I bought my baby brother a toy balloon
G5 n.c.
He let it get away and it floated toward the moon
C5 n.c.
Instead of crying he climbed up on the fence
G5 n.c.
Started flapping his arms and we ain't seen him since


Chorus
C5                  G5
Baby brother, baby brother
               C5 p.m.
Although he's out in outer space
         D5 p.m.
I can still see his face
         G5 p.m.
Baby brother

                C5 p.m
Although you're out in outer space
          D5 p.m.
I can still see your face
         G5 p.m.
Baby brother

G5                n.c.
Although you're out in outer space
n.c.
I can still see your face
n.c.
Baby brother

e-------|
B-------|
G-------|
D-------|
A-------|
E--3b4--|

G5   G5 n.c.
            
Submit corrections

↑ Back to top | Tablatures and chords for acoustic guitar and electric guitar, ukulele, drums are parodies/interpretations of the original songs. You may use it for private study, scholarship, research or language learning purposes only