Home » W » White Snake »

White Snake - Is This Love Tabs

Artists:  A B C D E F G H I J K L M N O P Q R S T U V W X Y Z # 

Is This Love Tabs

(ver. 2) Click to play this song!
White Snake
 Rating:
4/5 (4 votes)
                Fill 1
	 Em7				Bm7	       C9
	  |	   |	   |	   |	   |	   |	   |	   |    
-- -- -- -- -- -- -- -- -- -- -- -- -- -- -- -- -- -- -- -- -- -- -- -- 
-- -- -- -- -- -- -- 2-- -- -- -- -- -- -- -- -- -- -3-- -- -- -- -- -
-- -- -- -- -- -- 0- -- ----0-- -- 0-- -- -- ---0-- -- -- -- ---0 -- 
-- -- -- -- -- 4- -- -- -- -----4- -- -- ----4- -- -- -----4- -- -- 
-- 0^2 -- -- -- -- -- -- -- -- ------ --2- -- -- -----3- -- -- -- --
-0 -- -- -- -- -- -- -- -- -- -- -- -- -- -- -- -- -- -- -- ----- -- -


Fill 2
	C9				D/C
	  |	   |	   |	   |	   |	   |	   |	   |	
-- -- -- -- -- -- -- -- -- -- -- -- -- -- -- -- -- -- 2-- -- 2 --2 -- 
-- -- -- -- -- -- - ---3-- -- -3-3 -- -- -- -3- -- -- ---- 3 -- 3—---
-- -- -- -- -- -- -0- --------0-0-------------2---------2---2--- 
-- -- -- -- --4--- - -- ---- -4-4--------------------------- -- -- 
-- ---- -3- -- -- -- -- -- ---3-3- -----3-------------- -3-- 3--  
--- -- -- -- -- ---- -- -- -- -- -- -- -- -- -- -- -- -- ----- -- -- 

	Bm7				  C9  G/B    Am7   G        F
	   |	   |	   |	   |	   |	   |	   |	   |	   |	   |	
-- -- -- -- -- -- -- --2 -- --2 -2- -- --0 --3 -- --0 -- --3 -- -- 0-- -^1- -1-- 
-- -- -- -- --3-- -- -- -- -- 3--3 -- -- 1-- 3-- -- 1-- -- -3-- -- 0-- --^1 --1 -
-- -- -- -- -- -- 2- -- -- -- 2-- 2-- -- 0-- 0-- -- 0-- -- 0-- -- -0- -- ^1--2 -
-- -- -- -- -- -- -- -- -- -- -- -- -- -- -- -- -- -- -- -- -- -- -- ----------- - - 
-- -- -- -2- -- -- -- -- -- -- 2--2 -- --3 --2 -- --0 -- --3 -- -- 1-- -- -- -1--- 
-- -- -- -- -- -- -- -- -- -- -- -- -- -- -- -- -- -- -- -- -- ---- -- -- -- -- 

Fill 1
I should’ve known better than to let you go alone
It’s times like these, I can make it on my own
wasted days and sleepless nights
and I can wait to see you again

I find I spend my time waiting on your call
how can I tell you baby, my back’s against the wall
I need you by my side to tell my it’s allright
cause I don’t think I can take anymore

CHORUS
Fill 2
Is this love that I’m feeling
is this the love that I´ve been searching for
Is this love or am I dreaming
this must be love, cause it’s really got a hold on me
Fill 1
I can’t stop the feeling, I’ve been this way before
but with you I’ve found the key to open any door
I can feel my love for you growing stronger day by day
and I can’t wait to see you again, so I can hold you in my arms...

CHORUS x2
            
Submit corrections

↑ Back to top | Tablatures and chords for acoustic guitar and electric guitar, ukulele, drums are parodies/interpretations of the original songs. You may use it for private study, scholarship, research or language learning purposes only