Home » W » White Snake »

White Snake - Slow An Easy Tabs

Artists:  A B C D E F G H I J K L M N O P Q R S T U V W X Y Z # 

Slow An Easy Tabs

(ver. 1) Click to play this song!
White Snake
 Rating:
4/5 (5 votes)
                

E----------------------------------------------------|-----------|
B----------------------------------------------------|------5----|
G----3/5-0-0----0-3/5-0-0----0-3/5-0-0----0-3/5-0-0--|--0-3/5----|
D----------------------------------------------------|-----------|
A----------------------------------------------------|-----------|
E----------------------------------------------------|-----------|

(C) (D) (E)
E--------------------------|---------|--------------|
B--------------------------|------5--|--0/7/10\5----|
G----3/5-0-0----0-3/5-0-0--|--0-3/5--|--0/7/10\5----|
D--------------------------|---------|--------------|
A--------------------------|---------|--------------|
E--------------------------|---------|--------------|

(F) (G)
E-------------------------------| E--------------------------------|
B-------------------------------| B--------------------------------|
G----77777----77777----77775----| G----5-7-5-7-0==--5-7-5-7-7-0==--|
D----77777----77777----77775----| D----3-5-3-5-0==--3-5-3-5-5-0==--|
A----55555----55555----55553----| A--------------------------------|
E-------------------------------| E--------------------------------|

(H) (I)
E---------------------| E-------------| (A+B+C+D+C+E) x2
B---------------------| B-------------| (A) x1 -> (E) x2
G------0530300-030----| G----7-5-0==--| (F) x3 -> (G) x3
D----03-------3-------| D----5-3-0==--| (H) x2 -> (F) x5
A---------------------| A-------------| (G) x3 -> (H) x3
E---------------------| E-------------| ------SOLO------
(G) x3 -> (H) x3
(F) x2 -> (E) x2
            
Submit corrections

↑ Back to top | Tablatures and chords for acoustic guitar and electric guitar, ukulele, drums are parodies/interpretations of the original songs. You may use it for private study, scholarship, research or language learning purposes only