» » »

We The Kings - Secret Valentine Tabs

Artists:  A B C D E F G H I J K L M N O P Q R S T U V W X Y Z # 

Secret Valentine Tabs

(ver. 3) Click to play this song!
We The Kings
 Rating:
4/5 (4 votes)
                (Acoustic)
(Intro)
This tab is 100 percent correct as far as my ears can hear.I wanted to tab this 
because they're isnt a tab for it. Hope this helps!
Feel free to rate, and messaged me for anything!

Here is a great tuner!

Here is me Playing the Intro


The 3rd string is tuned to a f,and the 2nd string is tuned to a C!
E|-----------------------|------------------------|
C|-----------------------|------------------------|
F|-8---8---8---8-8-10----|-7---7---6---7-7-8------|
D|--6-6-6-6-6-6-6--------|--6-6-6-6-6-6-6---------|
A|---8---8---8-----------|---8---8---8------------|
E|-----------------------|------------------------|
                           Quite A Reach!
E|-----------------------|------------------------|
C|----------------0------|------------------------|
F|-5---5---5---5-5-------|-8---8---8---8----------|
D|--6-6-6-6-6-6-6--------|--4-4-4-4-4-4-4-4-------|
A|---8---8---8-----------|---8---8---8---8--------|
E|-----------------------|------------------------|

This Tab matches the piano in the Official Video For Secret Valentine by We The Kings.

When he plays it live acoustic, he plays it half step down.
Hope this helped everyone!
            
Submit corrections

↑ Back to top | Tablatures and chords for acoustic guitar and electric guitar, ukulele, drums are parodies/interpretations of the original songs. You may use it for private study, scholarship, research or language learning purposes only