» » »

We The Kings - Check Yes Juliet Tabs

Artists:  A B C D E F G H I J K L M N O P Q R S T U V W X Y Z # 

Check Yes Juliet Tabs

(ver. 1) Click to play this song!
We The Kings
 Rating:
4.6/5 (11 votes)
                   
   It's Jake again doing another tab, hope you guys like it.
   This is Check Yes Juliet by We The Kings.
   The tuning is Drop D. Enjoy!

   . = palm mute
   





            *INTRO*


e:---------------------------------------|
B:---------------------------------------|
G:-----7----6-----7-----6----------------|
D:--------------------------7--4---------| } x2
A:---5----5----5----5--------------------|
E:---------------------------------------|


  
e:---------------------------------------|
B:---------------------------------------|
G:---------------------------------------|
D:-7---------4---------5-----------------| 
A:-5-(x32)---2-(x16)---5-----------------|
E:---------------------5-(x16)-----------|



             *VERSE*

e:---------------------------------------|
B:---------------------------------------|
G:---------------------------------------|
D:-7---------4---------5-----------------| (everything palm muted)
A:-5-(x32)---2-(x16)---5-----------------| 
E:---------------------5-(x16)-----------| } x2
   .         .         .



Lace up your shoes
A O A Ohh
Here's how we do



RUN BABY RUN    *CHORUS*


e:----------------------------------------|
B:----------------------------------------|
G:----------------------------------------|
D:-44444444--77777777--55555555--77777777-| } x4
A:-22222222--55555555--55555555--77777777-|
E:---------------------55555555--77777777-|



             *BRIDGE*


e:---------------------------------------|
B:---------------------------------------|
G:---------------------------------------|
D:--555---222--777-77--77-77-------------| } x2
A:--555---222--555-55--77-77-------------|
E:--555---222----------77-77-------------|


e:------------------------------|
B:------------------------------|
G:------------------------------|
D:--4---------5-----------------| 
A:--2-(x16)---5-----------------|
E:------------5-(x16)-----------|



          *LAST CHORUS*

e:----------------------------------------|
B:----------------------------------------|
G:----------------------------------------|
D:-44444444--77777777--55555555--77777777-| } x6
A:-22222222--55555555--55555555--77777777-|
E:---------------------55555555--77777777-|

e:---------------|
B:---------------|
G:---------------|
D:-7-------------|(last 64 fades out)
A:-5-(x64)-------|
E:---------------|


   THE END OF A VERY GOOD SONG
            
Submit corrections

↑ Back to top | Tablatures and chords for acoustic guitar and electric guitar, ukulele, drums are parodies/interpretations of the original songs. You may use it for private study, scholarship, research or language learning purposes only